Text-Pesni.ws » Рок » Русский рок » Ногу свело - Муж на работе
Постер Ногу свело - Муж на работе
0 0 00
Слушать

Текст песни Муж на работе
Ногу свело

!
  • Артист: Ногу свело
  • Название: Муж на работе
  • Лейбл: Макс Покровский
  • Просмотров: 8
  • Качество: 320 kbps
  • Добавлено: 25-11-2021

Слова песни Ногу свело - Муж на работе

Перевод




























Вступление
Е)-------------------
H)-11-1/3----------5-

Е)---------------------
H)-11-1/3----5-------5-

Бас


Гитара 1
Е)-3^53-35/75-------0^20-22/3--3--
H)-----0------3-5-1-----4-----0-0-

Е)-3^53-35/75---0---0^20---
H)-----0------3-3-1-----45-

Гитара 2
Е)-------------------------
H)-------------------------

Е)-----------0---------------
H)-----------0--------0----0-

Аккорды Ногу свело - Муж на работе

Track 1: Steel Guitar

E|-------------------------|--------|-------------------------|-1------|---------------------------|
B|-3---3-------3---5-------|--------|-------------------------|--------|-3---3-------3---3-5-------|
G|-------------------------|-2------|-3---3-------3---6-------|--------|---------------------------|
D|-------------------------|--------|-------------------------|-0------|---------------------------|
A|-1---1-------1---3-------|--------|-------------------------|--------|-1---1-------1---1-3-------|
E|-------------------------|-1------|-3---3-------3---5-------|--------|---------------------------|


E|---------------|-------------------------|--------|-1--3--1-------1---5---3---|----------------|
B|---------6-----|-------------------------|-3------|-----------1---------------|-1--------------|
G|-2---2---------|-3---3-------3---6-------|--------|---------------------------|------2---------|
D|---------------|-------------------------|--------|---------------------------|-----------3----|
A|---------5-----|-------------------------|-5------|-1-----------------3-------|----------------|
E|-1---1---------|-3---3-------3---5-------|--------|---------------------------|-1--------------|


E|------------------------|----------------------|-1--3--1-------1---5---3---|-----------5----|
B|------3--6--3-------5---|-6-----------6--------|-----------1---------------|-1--------------|
G|-3--------------6-------|-----7-----------7----|---------------------------|------2---------|
D|------------------------|---------7------------|---------------------------|----------------|
A|------------------------|-5--------------------|-1-----------------3-------|-----------5----|
E|-3--------------5-------|----------------------|---------------------------|-1--------------|


E|------------------------|--------|-------------------------|----------------------|
B|------3--6--3-------5---|--------|-------------------------|----------------------|
G|-3--------------6-------|-7------|-------------------------|----------------------|
D|------------------------|--------|-----3---2---3-------2---|--------------3-------|
A|------------------------|-5------|-1---------------3-------|------3---------------|
E|-3--------------5-------|--------|-------------------------|-1--------1-----------|


E|-------------------------|----------------------|-------------------------|----------------------|
B|-------------------------|----------------------|-------------------------|----------------------|
G|-------------------------|--------------7-------|-------------------------|--------------2-------|
D|-------------------------|------7---------------|-----3---2---3-------2---|----------------------|
A|-----5---4---5-------4---|-5--------5-----------|-1---------------3-------|------3-------5-------|
E|-3---------------5-------|----------------------|-------------------------|-1--------1-----------|


E|-------------------------|------------|-1--3--1-------1---5---3---|----------------|
B|-------------------------|------------|-----------1---------------|-1--------------|
G|-------------------------|------------|---------------------------|------2---------|
D|-------------------------|-7----------|---------------------------|-----------3----|
A|-----5---4---5---4-------|-5----------|-1-----------------3-------|----------------|
E|-3---------------5-------|------------|---------------------------|-1--------------|


E|------------------------|----------------------|-1--3--1-------1---5---3---|-----------5----|
B|------3--6--3-------5---|-6-----------6--------|-----------1---------------|-1--------------|
G|-3--------------6-------|-----7-----------7----|---------------------------|------2---------|
D|------------------------|---------7------------|---------------------------|----------------|
A|------------------------|-5--------------------|-1-----------------3-------|-----------5----|
E|-3--------------5-------|----------------------|---------------------------|-1--------------|


E|------------------------|----------------------|
B|------3--6--3-------5---|-------------7---7----|
G|-3--------------6-------|---------7------------|
D|------------------------|-----7----------------|
A|------------------------|-5--------------------|
E|-3--------------5-------|----------------------|





Track 2: Acoustic Bass

G|-|-|-|-|-|-|-|-|------------|--------|------------|--------|------------|------------|
D|-|-|-|-|-|-|-|-|------------|--------|------------|-0------|------------|------------|
A|-|-|-|-|-|-|-|-|-1-----3----|--------|------------|--------|-1-----3----|-------5----|
E|-|-|-|-|-|-|-|-|------------|-1------|-3-----5----|--------|------------|-1----------|


G|------------|--------|-|-|-|-|-|-|-|-|------------|--------|------------|--------|
D|------------|-0------|-|-|-|-|-|-|-|-|------------|--------|------------|-0------|
A|------------|--------|-|-|-|-|-|-|-|-|-1-----3----|--------|------------|--------|
E|-3-----5----|--------|-|-|-|-|-|-|-|-|------------|-1------|-3-----5----|--------|


G|------------|------------|------------|--------|
D|------------|------------|------------|-0------|
A|-1-----3----|-------5----|------------|--------|
E|------------|-1----------|-3-----5----|--------|



Вступление
Е)-------------------
H)-11-1/3----------5-
G)--------0-22-2/4---
D)-22-2/4-0--------5-
A)----------33-3/5---
E)-------------------

Е)---------------------
H)-11-1/3----5-------5-
G)--------00---22-24---
D)-22-2/4-00-5-------5-
A)-------------33-35---
E)---------------------

Бас
A)------5----------7-33-3-5-----7--------7-
E)-88-8---3-55-5-7----------3-3---55-5-7---


Гитара 1
Е)-3^53-35/75-------0^20-22/3--3--
H)-----0------3-5-1-----4-----0-0-
G)-------------0-------------0----
D)----------------2---------------
A)-3------------------------------
E)------------3-------------------

Е)-3^53-35/75---0---0^20---
H)-----0------3-3-1-----45-
G)-------------0-----------
D)----------------2------5-
A)-3-----------------------
E)------------3------------

Гитара 2
Е)-------------------------
H)-------------------------
G)-----------0-----------0-
D)--20^20---0---20^20---2--
A)-3-------2---0-------2---
E)--------3-----------0----

Е)-----------0---------------
H)-----------0--------0----0-
G)--------------------0-0-0--
D)--20^20---0---20^20-2--2---
A)-3-------2---0-------------
E)--------3-----------0------

Клип Ногу свело - Муж на работе

Текст песни Муж на работе

Тексты песен Ногу свело являются собственностью правообладателей и лейбла Макс Покровский. Контент «Муж на работе» представлен на нашем ресурсе исключительно для ознакомления и личного пользования.
All lyrics are property and copyright of their owners. All lyrics provided for educational purposes and personal use only.

Комментарии (0)
Добавить
Кликните на изображение чтобы обновить код, если он неразборчив