Text-Pesni.ws » Рок » Русский рок » Мумий Тролль - Странники
Постер Мумий Тролль - Странники
0 0 00
Слушать

Текст песни Странники
Мумий Тролль

!
  • Артист: Мумий Тролль
  • Название: Странники
  • Просмотров: 11
  • Качество: 320 kbps
  • Добавлено: 22-11-2021

Слова песни Мумий Тролль - Странники

Перевод
Осталось никаких сомнений
Похоже счастлив я, и не слегка
Чтобы в таком хорошем настроении
И голова легка, хоть ночь и короткаОсталось никаких сомнений
Похоже счастлив я, и не слегка
Чтобы в таком хорошем настроении
И голова легка, хоть ночь и коротка

Все это ты, - и ты не привидение,
Фантастика, фантастика...
Неужто мы остаемся вместе
На века, на века...

Чтобы мечты не превращались в пену
Не убегали наутёк, все выкипит до дна
Я назову тебя Галактикой, Вселенной
И буду бороздить от звезд до черных дыр без устали и сна

Да ведь это ты, - и ты не привидение,
Фантастика, фантастика...
Неужто мы остаемся вместе
На века, на века, на века...

Ведь это ты, - и ты не привидение,
Фантастика, фантастика...
Неужто мы остаемся вместе
На века, на века, на века...

Ведь это ты, - и ты не привидение,
Фантастика, фантастика...
Неужто мы остаемся вместе
На века, на века, на века...

Аккорды Мумий Тролль - Странники

Intro:
G
Но из тех, кто смотрит,
Gm
Кто смотрит на звезды
Bm G
С другой стороны...
G
Но из тех, кто смотрит,
Gm
Кто смотрит на звезды
Bm G
С другой стороны...

Bridge:
Rhythm: G Gm Bm E x2
Solo:
e|-------------------|-------------------|---9--7---------10-|
B|-------------------|-------------------|-7--5--7--9-10----|
C|-----------------4-|-----------------7-|---------------------|
C|-2--2--2-2-4-/5----|-4---4---4--6/7----|---------------------|
G|-------------------|-------------------|---------------------|
G|-------------------|-------------------|---------------------|
( - по многу раз)

G G G G G

Verse1:
silence G Bm
Рисовали на стенах чьи-то ласковые имена
G Cm
И страдали любовью, были странниками до темна.
G Bm
Но как только лунные блики разбивались о маленький двор,
G Cm
Опускались на сны наши тихо, ждали солнца на зданиях школ.

Chorus:
G
Но из тех, кто смотрит,
Gm Bm
Кто смотрит на звезды
G
С другой стороны.
Bm G G
Мы не верим,
Bm G G
Мы не знаем,
Bm G
Мы не верим, не видим, не знаем,
G
Мы в них влюблены.

Bridge:
Rhythm: G Gm Bm E x2
Solo:
e|--9--7------------|--9--7---------------|
B|----7--5-7-9-10--|----7--5-7-9-12-10--|
( - по многу раз)

G G G G G

Verse2:
Мы не видим на небе созвездий - любим свои облака,
Мы искали от моря спокойствия, только правила нам на века.
Не бросать нас любимых в праздник, и всегда опускали глаза
До утра мы такие все разные - забывали свои имена

Chorus:
Но из тех, кто смотрит,
Кто смотрит на звезды
С другой стороны.
Мы не верим,
Мы не знаем,
Мы не верим, не видим, не знаем,
Мы в них влюблены.

Bridge.

Chorus:
Но из тех, кто смотрит,
Кто смотрит на звезды
С другой стороны.
Мы не верим,
Мы не знаем,
Мы не верим, не видим, не знаем,
Мы в них влюблены!!!!!!

Solo:
e|------0--------------------|-----------------5--7/9--10~-|
B|---------------------------|-----0--3----5/7-------------|
C|-----------6----4---6/7--0-|-----------------------------|
C|-2-------------------------|--2--------------------------|
G|---------------------------|-----------------------------|
G|---------------------------|-----------------------------|

G|-9h10---12--9--------------------9-10--14--16-17--21--19--17-|
B|----------------12-109-10--10h12-----------------------------|
C|-------------------------------------------------------------|
C|-------------------------------------------------------------|
G|-------------------------------------------------------------|
G|-------------------------------------------------------------|

G G G
ВЛЮБЛЕ-Е-Е-НЫ-Ы-Ы-Ы-А-А-А-А-А!!!!!!

Клип Мумий Тролль - Странники

Текст песни Странники

Тексты песен Мумий Тролль являются собственностью правообладателей. Контент «Странники» представлен на нашем ресурсе исключительно для ознакомления и личного пользования.
All lyrics are property and copyright of their owners. All lyrics provided for educational purposes and personal use only.

Рекомендуем
Постер Мумий Тролль - Летающая тарелка
Мумий Тролль - Летающая тарелка
Русский рок / 22-11-2021
{views}
Постер Мумий Тролль - Новая луна апреля
Мумий Тролль - Новая луна апреля
Русский рок / 15-01-2021
{views}
Постер Мумий Тролль - Милота
Мумий Тролль - Милота
Русский рок / 22-11-2021
{views}
Постер Мумий Тролль - Тот день, когда
Мумий Тролль - Тот день, когда
Русский рок / 22-03-2021
{views}
Постер Мумий Тролль - Всё или ничего
Мумий Тролль - Всё или ничего
Русский рок / 21-11-2021
{views}
Комментарии (0)
Добавить
Кликните на изображение чтобы обновить код, если он неразборчив