Постер Genesis - Horizons
0 0 00
Слушать

Текст песни Horizons
Genesis

!
  • Артист: Genesis
  • Название: Horizons
  • Лейбл: Virgin
  • Просмотров: 12
  • Качество: 320 kbps
  • Добавлено: 27-09-2021

Слова песни Genesis - Horizons

Перевод
-----------------------------|-----------------------------|
-----------------------12----|-----------------------------|
------------------12---------|---------12-------------12---|
-------------12--------------|----------------12-----------|
-----------------------------|---7-------------------------|
------7----------------------|-----------------------------|

-----------------------------|-----------------------------|
------------------------12---|-----------------------------|
------------------12---------|---------12------------12----|
-----------12----------------|----------------12-----------|
-----------------------------|---7-------------------------|
----7------------------------|-----------------------------|

-----------------------------|------------------------------|
----------------------12-----|-------------------0----------|
---------------12------------|------------------------2-----|
---------12------------------|---------0--------------------|
-----------------------------|------------------------------|
---7-------------------------|----3-------------------------|

-----------------------------|-------------------------------|
----0------------0-----------|--------------------0----------|
-----------------------0-----|--------------------------2----|
---------0-------------------|-----------0-------------------|
-----------------------------|-------------------------------|
-----------------------------|---3---------------------------|

-----------------------------|------------------------------|
------0---------------0------|------------------1-------0---|
--------------------------0--|------------------2-----------|
------------0----------------|---------2--------------------|
-----------------------------|---0--------------------------|
-----------------------------|------------------------------|

-----------------------------|------------------------------|
---1---------------1---------|-------------------1------0---|
-----------------------------|-------------------2----------|
----------2------------------|--------0---------------------|
---0-------------------------|------------------------------|
-------------------3-----0---|---2--------------------------|
repeat marks
-----------------------------|------------------0-----------|
------0----------------------|----0-------------------------|
---------------------2-------|------------------------------|
------------0------------0---|----------0---------------0---|
-----------------------------|------------------------------|
------3----------------------|------------------------------|

-----------------------------|-----------------------------|
----3-------------------0----|--------1---------------0----|
-----------------2-----------|--------2---------------0----|
----------0------------------|-----------------------------|
-----------------------------|-----------------------------|
---2-------------------------|-----------------------------|



-----0----------------2------|--3----------------5-------|
-----1---------3------3------|--3----------------5-------|
---------0-------------------|--0----------------5-------|
-------------------0------0--|---------------------------|
-----3-----------------------|--2----------------3-------|
---------------2-------------|---------------------------|

---7---------10-----|---7---------5------|---3----------3-----|
---8----------------|---7-------------4--|-------0---------0--|
---7----------------|-------------4------|--------------------|
---0----------------|-------------4------|--------------------|
--------------------|---6---7------------|--------------------|
--------------------|--------------------|---0----------------|
|---|
-----0-----7---5---3---2----|---0-----------------0--------|
----------------------------|------------0-----------------|
-----0----------------------|--------------------------0---|
---------------0------------|------------------------------|
----------------------------|---3--------------------------|
----------------------------|------------------------------|

----------------------------|---0------3-------2------2----|
---0-------------------0----|---------------------2------2-|
-------------------0--------|------------------------------|
-------2--2----4------------|------------------------------|
----------------------------|-------------------1----------|
----------------------------|------------------------------|

---2--------------3--------|----2---------------3---------|
---------3-------------3---|----------3--------------3----|
------------------0--------|--------------------0---------|
---------------------------|------------------------------|
---2-----------------------|----2-------------------------|
---------------------------|------------------------------|
________________________________________________________
| 1 |
| |
--2--2--------------3-------|----2------------3----------||
----------2-------------2---|----------2------------2---.||
--------------------0-------|-----------------0----------||
----------------------------|---------------------------.||
-----1----------------------|----1-----------------------||
----------------------------|----------------------------||

_________________________________________________________
| 2. |
| |
-----2----------3-----------|-----2-------------0--------|
----------2-----------2-----|-------------------------0--|
----------------0-----------|----------------------------|
----------------------------|----------------------------|
-----1----------------------|-----1----------------------|
----------------------------|-------------------4--------|

||-------------------------|----------------------------|
||.---1---------------0----|----1------------3----------|
||---------------2---------|-----------------------2----|
||.-------2----------------|----------0-----------------|
||----0--------------------|----------------------------|
||-------------------------|----2-----------------------|

_____________________________
| 1 |
---------------------------|--------------------0-------||
----0----------------------|---0-------------------0---.||
-------------0-------2-----|---------0------------------||
--------0------------------|---------------------------.||
---------------------------|----------------------------||
----3----------------------|---2----------------4-------||

____________________________
| 2 |
-------------------0--------|-------------------2---------|
--0----------------1--------|----3--------------3---------|
--------0---------------0---|-----------------------------|
----------------------------|----------0--------------0---|
-------------------3--------|-----------------------------|
----------------------------|----2------------------------|

----3-------5-----|---7---------|----5------------------|
----3-------5-----|---8---------|----5------------------|
----0-------5-----|---7-----7---|----5----------7-------|
------------------|---0---------|----0------------------|
----2-------3-----|-------------|-----------------------|
------------------|-------------|-----------------------|

----3----------------------|------5--------------|
----3----------------------|------5--------------|
----4--------------7-------|------5--------------|
----0----------------------|------0--------------|
---------------------------|---------------------|
---------------------------|---------------------|

-----7------8------10------|----------10-------10-----|
---------------------------|----10--------------------|
-----0---------------------|--------------------------|
---------------------------|--------------------------|
---------------------------|--------------------------|
---------------------------|--------------------------|

-----------------10--------|--------------------------|
-----8---------------------|-------10-----------------|
---------------------------|--------------------------|
---------------------------|--------------------------|
---------------------------|--------------------------|
---------------------------|--------------------------|

---------------------------|-------------------------|
-------12------------------|-------------------------|
-------------------7-------|-----------------7-------|
---------------------------|-------7-----------------|
---------------------------|-------------------------|
---------------------------|-------------------------|

---------------------------|-------------------------|
---------------------------|-------------------------|
-------12-----------7------|-----------------7-------|
---------------------------|------7------------------|
---------------------------|-------------------------|
---------------------------|-------------------------|

Аккорды Genesis - Horizons

-----------------------------|-----------------------------|
-----------------------12----|-----------------------------|
------------------12---------|---------12-------------12---|
-------------12--------------|----------------12-----------|
-----------------------------|---7-------------------------|
------7----------------------|-----------------------------|

-----------------------------|-----------------------------|
------------------------12---|-----------------------------|
------------------12---------|---------12------------12----|
-----------12----------------|----------------12-----------|
-----------------------------|---7-------------------------|
----7------------------------|-----------------------------|

-----------------------------|------------------------------|
----------------------12-----|-------------------0----------|
---------------12------------|------------------------2-----|
---------12------------------|---------0--------------------|
-----------------------------|------------------------------|
---7-------------------------|----3-------------------------|

-----------------------------|-------------------------------|
----0------------0-----------|--------------------0----------|
-----------------------0-----|--------------------------2----|
---------0-------------------|-----------0-------------------|
-----------------------------|-------------------------------|
-----------------------------|---3---------------------------|

-----------------------------|------------------------------|
------0---------------0------|------------------1-------0---|
--------------------------0--|------------------2-----------|
------------0----------------|---------2--------------------|
-----------------------------|---0--------------------------|
-----------------------------|------------------------------|

-----------------------------|------------------------------|
---1---------------1---------|-------------------1------0---|
-----------------------------|-------------------2----------|
----------2------------------|--------0---------------------|
---0-------------------------|------------------------------|
-------------------3-----0---|---2--------------------------|
repeat marks
-----------------------------|------------------0-----------|
------0----------------------|----0-------------------------|
---------------------2-------|------------------------------|
------------0------------0---|----------0---------------0---|
-----------------------------|------------------------------|
------3----------------------|------------------------------|

-----------------------------|-----------------------------|
----3-------------------0----|--------1---------------0----|
-----------------2-----------|--------2---------------0----|
----------0------------------|-----------------------------|
-----------------------------|-----------------------------|
---2-------------------------|-----------------------------|



-----0----------------2------|--3----------------5-------|
-----1---------3------3------|--3----------------5-------|
---------0-------------------|--0----------------5-------|
-------------------0------0--|---------------------------|
-----3-----------------------|--2----------------3-------|
---------------2-------------|---------------------------|

---7---------10-----|---7---------5------|---3----------3-----|
---8----------------|---7-------------4--|-------0---------0--|
---7----------------|-------------4------|--------------------|
---0----------------|-------------4------|--------------------|
--------------------|---6---7------------|--------------------|
--------------------|--------------------|---0----------------|
|---|
-----0-----7---5---3---2----|---0-----------------0--------|
----------------------------|------------0-----------------|
-----0----------------------|--------------------------0---|
---------------0------------|------------------------------|
----------------------------|---3--------------------------|
----------------------------|------------------------------|

----------------------------|---0------3-------2------2----|
---0-------------------0----|---------------------2------2-|
-------------------0--------|------------------------------|
-------2--2----4------------|------------------------------|
----------------------------|-------------------1----------|
----------------------------|------------------------------|

---2--------------3--------|----2---------------3---------|
---------3-------------3---|----------3--------------3----|
------------------0--------|--------------------0---------|
---------------------------|------------------------------|
---2-----------------------|----2-------------------------|
---------------------------|------------------------------|
________________________________________________________
| 1 |
| |
--2--2--------------3-------|----2------------3----------||
----------2-------------2---|----------2------------2---.||
--------------------0-------|-----------------0----------||
----------------------------|---------------------------.||
-----1----------------------|----1-----------------------||
----------------------------|----------------------------||

_________________________________________________________
| 2. |
| |
-----2----------3-----------|-----2-------------0--------|
----------2-----------2-----|-------------------------0--|
----------------0-----------|----------------------------|
----------------------------|----------------------------|
-----1----------------------|-----1----------------------|
----------------------------|-------------------4--------|

||-------------------------|----------------------------|
||.---1---------------0----|----1------------3----------|
||---------------2---------|-----------------------2----|
||.-------2----------------|----------0-----------------|
||----0--------------------|----------------------------|
||-------------------------|----2-----------------------|

_____________________________
| 1 |
---------------------------|--------------------0-------||
----0----------------------|---0-------------------0---.||
-------------0-------2-----|---------0------------------||
--------0------------------|---------------------------.||
---------------------------|----------------------------||
----3----------------------|---2----------------4-------||

____________________________
| 2 |
-------------------0--------|-------------------2---------|
--0----------------1--------|----3--------------3---------|
--------0---------------0---|-----------------------------|
----------------------------|----------0--------------0---|
-------------------3--------|-----------------------------|
----------------------------|----2------------------------|

----3-------5-----|---7---------|----5------------------|
----3-------5-----|---8---------|----5------------------|
----0-------5-----|---7-----7---|----5----------7-------|
------------------|---0---------|----0------------------|
----2-------3-----|-------------|-----------------------|
------------------|-------------|-----------------------|

----3----------------------|------5--------------|
----3----------------------|------5--------------|
----4--------------7-------|------5--------------|
----0----------------------|------0--------------|
---------------------------|---------------------|
---------------------------|---------------------|

-----7------8------10------|----------10-------10-----|
---------------------------|----10--------------------|
-----0---------------------|--------------------------|
---------------------------|--------------------------|
---------------------------|--------------------------|
---------------------------|--------------------------|

-----------------10--------|--------------------------|
-----8---------------------|-------10-----------------|
---------------------------|--------------------------|
---------------------------|--------------------------|
---------------------------|--------------------------|
---------------------------|--------------------------|

---------------------------|-------------------------|
-------12------------------|-------------------------|
-------------------7-------|-----------------7-------|
---------------------------|-------7-----------------|
---------------------------|-------------------------|
---------------------------|-------------------------|

---------------------------|-------------------------|
---------------------------|-------------------------|
-------12-----------7------|-----------------7-------|
---------------------------|------7------------------|
---------------------------|-------------------------|
---------------------------|-------------------------|

Клип Genesis - Horizons

Текст песни Horizons

Тексты песен Genesis являются собственностью правообладателей и лейбла Virgin. Контент «Horizons» представлен на нашем ресурсе исключительно для ознакомления и личного пользования.
All lyrics are property and copyright of their owners. All lyrics provided for educational purposes and personal use only.

Рекомендуем
Постер Genesis - I Know What I Like
Genesis - I Know What I Like
Прогрессивный рок / 27-09-2021
{views}
Постер Genesis - Cinema Show
Genesis - Cinema Show
Прогрессивный рок / 12-04-2021
{views}
Постер Genesis - Firth Of Fifth
Genesis - Firth Of Fifth
Прогрессивный рок / 27-09-2021
{views}
Постер Genesis - Dusk
Genesis - Dusk
Прогрессивный рок / 27-09-2021
{views}
Постер Genesis - After The Ordeal
Genesis - After The Ordeal
Прогрессивный рок / 13-05-2021
{views}
Комментарии (0)
Добавить
Кликните на изображение чтобы обновить код, если он неразборчив