Text-Pesni.ws » Рок » Прогрессивный рок » Genesis - Firth Of Fifth
Постер Genesis - Firth Of Fifth
0 0 00
Слушать

Текст песни Firth Of Fifth
Genesis

!
  • Артист: Genesis
  • Название: Firth Of Fifth
  • Лейбл: Virgin
  • Просмотров: 10
  • Качество: 320 kbps
  • Добавлено: 27-09-2021

Слова песни Genesis - Firth Of Fifth

Перевод
e|-14-----------------------------------------------------------------|

e|------------------------------------------------------------------|

{~trill~}
e|-----------------------------------------------------------------12-|

sustain note........ (slow release)
e|-12-12h14------------------b15--14b15r14-------------------------|

e|---------------------------------------12-11~~~--------------|

e|-----------------------------------------------------12-14-14b15-|



(slow release)
e|-14b15r14-------------------------------------------------------|

e|----------12-11~~~--------------------------------------------|

e|--------------------------------------------------------------|

e|---------------------------------------------------|

(bridge pickup)
e|-----------------------11-12-14-14b15--14b15r14-------------|

e|---------------------------------------12-11~~~-------------|

e|----------------------------------------------|

Аккорды Genesis - Firth Of Fifth

e|-14-----------------------------------------------------------------|
B|----12~~~--------------------------------17p15-17p15-17p15-17/s7~~-|
G|----------11h12p11--9-----------12-11~~~----------------------------|
D|----------------------12~~~~-12-------------------------------------|
A|--------------------------------------------------------------------|
E|--------------------------------------------------------------------|

e|------------------------------------------------------------------|
B|-12p10-12p10-12p10-12/s3~~~-17p15-17p15-17p15-17/s7/s12/s3~~~-|
G|------------------------------------------------------------------|
D|------------------------------------------------------------------|
A|------------------------------------------------------------------|
E|------------------------------------------------------------------|

{~trill~}
e|-----------------------------------------------------------------12-|
B|-5-7h8----------------------------------------13--------------15----|
G|-------4~~~--7p4-----7/s9--11-12-14/s16~~~-----16--14-16~~--------|
D|--------------------------------------------------------------------|
A|--------------------------------------------------------------------|
E|--------------------------------------------------------------------|

sustain note........ (slow release)
e|-12-12h14------------------b15--14b15r14-------------------------|
B|------------------------------------------12-13--7b8-------------|
G|-----------------------------------------------------------------|
D|-----------------------------------------------------------------|
A|-----------------------------------------------------------------|
E|-----------------------------------------------------------------|

e|---------------------------------------12-11~~~--------------|
B|-12--12-13----13----13----13--------12-----------12p10-12~~~-|
G|-----------14----12----11--------12--------------------------|
D|------------------------------14-----------------------------|
A|-------------------------------------------------------------|
E|-------------------------------------------------------------|

e|-----------------------------------------------------12-14-14b15-|
B|--------------------------------------------12-13-15-------------|
G|-----------------------------------11-12-14----------------------|
D|-12-14-14b16r14~~~--10-12-14-13-14-------------------------------|
A|-----------------------------------------------------------------|
E|-----------------------------------------------------------------|



(slow release)
e|-14b15r14-------------------------------------------------------|
B|-----------12-13--7b8---------------12--12-13----13----13----13-|
G|----------------------------------------------14----12----11----|
D|----------------------------------------------------------------|
A|----------------------------------------------------------------|
E|----------------------------------------------------------------|

e|----------12-11~~~--------------------------------------------|
B|-------12----------12p10-12~~~--------------------------------|
G|----12--------------------------------------------------------|
D|-14----------------------------12-14-14b16r14~~~--10-12-14-13-|
A|--------------------------------------------------------------|
E|--------------------------------------------------------------|

e|--------------------------------------------------------------|
B|----------------------12p10-10~~~-----------------------------|
G|----12-11~~~-14----------------------7----------------9-11h12-|
D|-13-------------10~~~--------------9---9-7------7--9----------|
A|-------------------------------------------7-10---------------|
E|--------------------------------------------------------------|

e|---------------------------------------------------|
B|---------------15b17r15~~~-------------------------|
G|-14-14/s16~~~-------------------------------------|
D|---------------------------7b9r7~~~-9--7-7~~~-7-13-|
A|---------------------------------------------------|
E|---------------------------------------------------|

(bridge pickup)
e|-----------------------11-12-14-14b15--14b15r14-------------|
B|--------------12-13-15---------------------------12-13--7b8-|
G|-----11-12-14-----------------------------------------------|
D|-14---------------------------------------------------------|
A|------------------------------------------------------------|
E|------------------------------------------------------------|

e|---------------------------------------12-11~~~-------------|
B|-12--12-13----13----13----13--------12----------12p10-12~~~-|
G|-----------14----12----11--------12-------------------------|
D|------------------------------14----------------------------|
A|------------------------------------------------------------|
E|------------------------------------------------------------|

e|----------------------------------------------|
B|----------------------------------------------|
G|----------------------------------------------|
D|-12-14-14b16r14~~~-10-12-14-13~~~--13-14------|
A|----------------------------------------------|
E|----------------------------------------------|

Клип Genesis - Firth Of Fifth

Текст песни Firth Of Fifth

Тексты песен Genesis являются собственностью правообладателей и лейбла Virgin. Контент «Firth Of Fifth» представлен на нашем ресурсе исключительно для ознакомления и личного пользования.
All lyrics are property and copyright of their owners. All lyrics provided for educational purposes and personal use only.

Рекомендуем
Постер Genesis - I Know What I Like
Genesis - I Know What I Like
Прогрессивный рок / 27-09-2021
{views}
Постер Genesis - Horizons
Genesis - Horizons
Прогрессивный рок / 27-09-2021
{views}
Постер Genesis - Cinema Show
Genesis - Cinema Show
Прогрессивный рок / 12-04-2021
{views}
Постер Genesis - Dusk
Genesis - Dusk
Прогрессивный рок / 27-09-2021
{views}
Постер Genesis - After The Ordeal
Genesis - After The Ordeal
Прогрессивный рок / 13-05-2021
{views}
Комментарии (0)
Добавить
Кликните на изображение чтобы обновить код, если он неразборчив