Постер Inxs - Time
0 0 00
Слушать

Текст песни Time
Inxs

!
  • Артист: Inxs
  • Название: Time
  • Лейбл: Petrol
  • Просмотров: 11
  • Качество: 320 kbps
  • Добавлено: 26-11-2021

Слова песни Inxs - Time

Перевод


Time by INXS

Main Riff-played a lot

e---------------------------|
b---------------------------|
g-2-2-0-2-------------------|
d-2-2-0-2-------------------|
a---------------------------|
e---------------------------|



Well It's Only Time

It's Only Time That Makes You

Well It's Only Time


what I use
e-5-8--3----|
b-5-8--3--7-|
g-6-9--4--7-|
d-7-10-5--7-|
a-7-10-5--5-|
e-5-8--3----|

Solo (Kirk's Way)

e---------------------------------------------------------------|
b-------------------------------------13-12-13-12-13-12---------|
g-12-11-12-11-12-11-14-13-14-13-14-13---------------------------|
d---------------------------------------------------------------|
a---------------------------------------------------------------|
e---------------------------------------------------------------|

(repeat this part until
return to main riff)
e-15-15-15-14----12-14-15-15-15-14-14-14-|
b-------------15-------------------------|

Solo (My Way) (Repeat this
part until
return to
main riff)

e-3-2-3-2-3-2-5-4-5-4-5-4-8-7-8-7-8-7-15-15-15-14----12-14-15-15-15-14--|
b-3-3-3-3-3-3-5-5-5-5-5-5-8-8-8-8-8-8-15-15-15-15-15-12-15-15-15-15-14--|
g-2-2-2-2-2-2-4-4-4-4-4-4-7-7-7-7-7-7-14-14-14-14-14----14-15-15-15-14--|

Аккорды Inxs - Time

Date: Fri, 21 Apr 1995 19:35:44 -0700
From: Michael Chen


Time by INXS
Beavy Distortion

Main Riff-played a lot

e---------------------------|
b---------------------------|
g-2-2-0-2-------------------|
d-2-2-0-2-------------------|
a---------------------------|
e---------------------------|


Chorus

G G
Well It's Only Time

C C
It's Only Time That Makes You

G G
Well It's Only Time

C C
It's Only Time That Breaks You

Chord Formations...You can actually use any forms of them, this just
what I use
G G C C
e-5-8--3----|
b-5-8--3--7-|
g-6-9--4--7-|
d-7-10-5--7-|
a-7-10-5--5-|
e-5-8--3----|

Solo (Kirk's Way)

e---------------------------------------------------------------|
b-------------------------------------13-12-13-12-13-12---------|
g-12-11-12-11-12-11-14-13-14-13-14-13---------------------------|
d---------------------------------------------------------------|
a---------------------------------------------------------------|
e---------------------------------------------------------------|

(repeat this part until
return to main riff)
e-15-15-15-14----12-14-15-15-15-14-14-14-|
b-------------15-------------------------|

Solo (My Way) (Repeat this
part until
return to
main riff)

e-3-2-3-2-3-2-5-4-5-4-5-4-8-7-8-7-8-7-15-15-15-14----12-14-15-15-15-14--|
b-3-3-3-3-3-3-5-5-5-5-5-5-8-8-8-8-8-8-15-15-15-15-15-12-15-15-15-15-14--|
g-2-2-2-2-2-2-4-4-4-4-4-4-7-7-7-7-7-7-14-14-14-14-14----14-15-15-15-14--|

Клип Inxs - Time

Текст песни Time

Тексты песен Inxs являются собственностью правообладателей и лейбла Petrol. Контент «Time» представлен на нашем ресурсе исключительно для ознакомления и личного пользования.
All lyrics are property and copyright of their owners. All lyrics provided for educational purposes and personal use only.

Рекомендуем
Постер Inxs - New Sensation
Inxs - New Sensation
Иностранный рок / 26-11-2021
{views}
Постер Inxs - This Time
Inxs - This Time
Иностранный рок / 26-11-2021
{views}
Постер Inxs - Elegantly Wasted
Inxs - Elegantly Wasted
Иностранный рок / 26-11-2021
{views}
Постер Inxs - Never Tear Us Apart
Inxs - Never Tear Us Apart
Иностранный рок / 26-11-2021
{views}
Постер Inxs - Need You Tonight
Inxs - Need You Tonight
Иностранный рок / 26-11-2021
{views}
Комментарии (0)
Добавить
Кликните на изображение чтобы обновить код, если он неразборчив