Text-Pesni.ws » Рок » Иностранный рок » Imagine Dragons - Emma
Постер Imagine Dragons - Emma
0 0 00
Слушать

Текст песни Emma
Imagine Dragons

!
  • Артист: Imagine Dragons
  • Название: Emma
  • Лейбл: CD Baby
  • Просмотров: 19
  • Качество: 320 kbps
  • Добавлено: 22-11-2021

Слова песни Imagine Dragons - Emma

Перевод
INTRO

(palm mute with delay)



(strum these notes)


INTRO








(strum these notes)




SOLO



------------------------------------------------|
------------------------------------------------|
------15-13b-------11-10-------13--------15-13b-|
----11-------11-13-------13/15-------11---------|
--14------------------------------14------------|
------------------------------------------------|

-----------------------------------|
--14-16----------------------------|
--------15-13-11----11----11/15-13-|
-----------------13----13----------|
-----------------------------------|
-----------------------------------|

POST
(no music in the beginning)


(listen to song for strum pattern)

INTRO




Аккорды Imagine Dragons - Emma

INTRO

Electric 1
(palm mute with delay)
E|--------------------|
B|------------9-------|
G|----10---10---10----|
D|-88----8---------88-|
A|--------------------|
E|--------------------|

Synth/Electric 3

E|---------------------------|
B|---------------------------|
G|---------------------------|
D|-8/16/181511--8/16/1815-|
A|---------------------------|
E|---------------------------|

Electric 2
(strum these notes)
E|-----| |-----|
B|-----| |--6--|
G|--8--| |--8--|
D|--8--| |--8--|
A|--6--| |-----|
E|-----| |-----|

VERSE

INTRO

VERSE

PRE-CHORUS

Electric 1

E|-9-------9--------------------|
B|---11------11----9------9-----|
G|------11------11----11-----11-|
D|------------------------------|
A|------------------------------|
E|------------------------------|

CHORUS

Synth/Electric 3

E|---------------------------|
B|---------------------------|
G|---------------------------|
D|-8/16/181511--8/16/1815-|
A|---------------------------|
E|---------------------------|

Electric 2
(strum these notes)
E|-----| |-----|
B|-----| |--6--|
G|--8--| |--8--|
D|--8--| |--8--|
A|--6--| |-----|
E|-----| |-----|

VERSE

PRE-CHORUS

CHORUS

SOLO

Electric 1

E|--------------------------------------------------|
B|-16b-1616-14--------------------------------------|
G|-------------1515-1515151515-13-11-13-11-13-15-11-|
D|--------------------------------------------------|
A|--------------------------------------------------|
E|--------------------------------------------------|

------------------------------------------------|
------------------------------------------------|
------15-13b-------11-10-------13--------15-13b-|
----11-------11-13-------13/15-------11---------|
--14------------------------------14------------|
------------------------------------------------|

-----------------------------------|
--14-16----------------------------|
--------15-13-11----11----11/15-13-|
-----------------13----13----------|
-----------------------------------|
-----------------------------------|

POST
(no music in the beginning)

THEN...

Electric 2
(listen to song for strum pattern)
E|-------------------|
B|-------------------|
G|-11-8-11-8-4-6-4-6-|
D|-11-8-11-8-4-6-4-6-|
A|-9--6-9--6-2-4-2-4-|
E|-------------------|

INTRO

THEN GCC THE PRE-CHORUS

THEN GCC...

Electric 1

E|------------------------11/1311-|
B|-16b-1616-14------11-14----------|
G|-------------1515----------------|
D|---------------------------------|
A|---------------------------------|
E|---------------------------------|

Клип Imagine Dragons - Emma

Текст песни Emma

Тексты песен Imagine Dragons являются собственностью правообладателей и лейбла CD Baby. Контент «Emma» представлен на нашем ресурсе исключительно для ознакомления и личного пользования.
All lyrics are property and copyright of their owners. All lyrics provided for educational purposes and personal use only.

Рекомендуем
Постер Imagine Dragons - Underdog
Imagine Dragons - Underdog
Иностранный рок / 22-03-2021
{views}
Постер Imagine Dragons - It's Time
Imagine Dragons - It's Time
Иностранный рок / 18-01-2021
{views}
Постер Imagine Dragons - Look How Far Weve Come
Imagine Dragons - Look How Far Weve Come
Иностранный рок / 22-03-2021
{views}
Постер Imagine Dragons - Hear Me
Imagine Dragons - Hear Me
Иностранный рок / 22-03-2021
{views}
Постер Imagine Dragons - Bad Liar
Imagine Dragons - Bad Liar
Иностранный рок / 17-01-2021
{views}
Комментарии (0)
Добавить
Кликните на изображение чтобы обновить код, если он неразборчив