Text-Pesni.ws » Рок » Иностранный рок » Genesis - Fountain Of Salmacis
Постер Genesis - Fountain Of Salmacis
0 0 00
Слушать

Текст песни Fountain Of Salmacis
Genesis

!
  • Артист: Genesis
  • Название: Fountain Of Salmacis
  • Лейбл: The Media Champ
  • Просмотров: 11
  • Качество: 320 kbps
  • Добавлено: 27-09-2021

Слова песни Genesis - Fountain Of Salmacis

Перевод
e|----------7--0---12-12-10-9-----------------------------------------|

|---------------------------------------------------------------------|
|---------------------------------------------------------------------|
|---------------------------------------------------------------------|
|-4--6--7--6--7--6--7--6--7--6---------------------7--6--9--7-11--9-12|
|--------------------------------------------7--7---------------------|
|--------------------------------2--4--5--7---------------------------|

sl sl sl sl sl sl
|-------------14----9--7~-9--7~--10~-14~-7~-9-10-9--14~-7~-9-10-9-----|
|----------------15---------------------------------------------------|
|----9----------------------------------------------------------------|
|-11---11-12----------------------------------------------------------|
|---------------------------------------------------------------------|
|---------------------------------------------------------------------|

Аккорды Genesis - Fountain Of Salmacis

e|----------7--0---12-12-10-9-----------------------------------------|
B|-7--9-10--------------------12--------------------------------------|
G|-------------------------------9------------------------------------|
D|---------------------------------12-11-9--4-6-7-6-7-6-7-6-7-6-------|
A|--------------------------------------------------------------------|
E|--------------------------------------------------------------------|

|---------------------------------------------------------------------|
|---------------------------------------------------------------------|
|---------------------------------------------------------------------|
|-4--6--7--6--7--6--7--6--7--6---------------------7--6--9--7-11--9-12|
|--------------------------------------------7--7---------------------|
|--------------------------------2--4--5--7---------------------------|

sl sl sl sl sl sl
|-------------14----9--7~-9--7~--10~-14~-7~-9-10-9--14~-7~-9-10-9-----|
|----------------15---------------------------------------------------|
|----9----------------------------------------------------------------|
|-11---11-12----------------------------------------------------------|
|---------------------------------------------------------------------|
|---------------------------------------------------------------------|

Клип Genesis - Fountain Of Salmacis

Текст песни Fountain Of Salmacis

Тексты песен Genesis являются собственностью правообладателей и лейбла The Media Champ. Контент «Fountain Of Salmacis» представлен на нашем ресурсе исключительно для ознакомления и личного пользования.
All lyrics are property and copyright of their owners. All lyrics provided for educational purposes and personal use only.

Рекомендуем
Постер Genesis - Invisible Touch
Genesis - Invisible Touch
Иностранный рок / 6-04-2021
{views}
Постер Genesis - Guide Vocal
Genesis - Guide Vocal
Иностранный рок / 27-09-2021
{views}
Постер Genesis - Tonight Tonight Tonight
Genesis - Tonight Tonight Tonight
Иностранный рок / 6-04-2021
{views}
Постер Genesis - Hairless Heart
Genesis - Hairless Heart
Иностранный рок / 27-09-2021
{views}
Постер Genesis - Congo
Genesis - Congo
Иностранный рок / 12-04-2021
{views}
Комментарии (0)
Добавить
Кликните на изображение чтобы обновить код, если он неразборчив