Постер Garbage - Queer
0 0 00
Слушать

Текст песни Queer
Garbage

!
  • Артист: Garbage
  • Название: Queer
  • Лейбл: STUNVOLUME
  • Просмотров: 20
  • Качество: 320 kbps
  • Добавлено: 12-05-2021

Слова песни Garbage - Queer

Перевод
intro

riff 1

-------------------|----------------------------------------------------------
-------------------|----------------------------------------------------------
------3-5-5b6r5--3-|----------------------------------------------------------
----5--------------|----------------------------------------------------------
-------------------|----------------------------------------------------------
-------------------|----------------------------------------------------------
riff 2

-20----------------|-----------------|----------------|--------------|--------
-------------------|-20--------------|-15-------------|--------------|--------
-------------------|-----------------|----------------|-15-----------|--------
-------------------|-----------------|----------------|--------------|--------
-------------------|-----------------|----------------|--------------|--------
-------------------|-----------------|----------------|--------------|--------
verse

-----------|------------|-----------------------|-------------------------|---
-----------|------------|-----------------------|-------------------------|---
-----------|------------|---------3-5-5b6r5--3--|-----------3-5-5b6r5--3--|---
-----------|------------|-------5---------------|---------5---------------|---
-----------|------------|-----------------------|-------------------------|---
-----------|------------|-----------------------|-------------------------|---
chorus - riff 1

------------|-------------|-----------|-----------|---------|-------|---|-----
------------|-------------|-----------|-----------|---------|-------|---|-----
------------|-8-----------|-5---------|-----------|-8-------|-5-----|-8-|-8---
-5----------|-8-----------|-5---------|-3---------|-8-------|-5-----|-8-|-8---
-5----------|-6-----------|-3---------|-3---------|-6-------|-3-----|-6-|-6---
-3----------|-------------|-----------|-1---------|---------|-------|---|-----
riff 2

-20---------|-------------|-20--------|-----------|-20------|-------|----|----
------------|-20----------|-----------|-20--------|---------|-20----|1518|----
------------|-------------|-----------|-----------|---------|-------|----|----
------------|-------------|-----------|-----------|---------|-------|----|----
------------|-------------|-----------|-----------|---------|-------|----|----
------------|-------------|-----------|-----------|---------|-------|----|----
solo after chorus - riff 1

------------------|------------------|----------------------------------------
------------------|------------------|----------------------------------------
-9-109-9-10-----10|9-109--9--10---10-|----------------------------------------
-x-x-x-x-x------x-|x-x-x--x--x----x--|-x4-------------------------------------
-7-8-7-7-8------8-|7-8-7--7--8----8--|----------------------------------------
------------------|------------------|----------------------------------------
riff 2

------------------|------------------|----------------|----------|------------
------------------|----------16b18---|----------------|----------|---5b7------
-----------15-----|------------------|-------5b7------|----------|------------
------------------|------------------|----------------|----------|------------
------------------|------------------|----------------|-----8---|------------
------------------|------------------|----------------|----------|------------


----12b141--------|------------------|----------------|-----------------------
------------------|------------------|----------------|-----------------------
------------------|------------------|----------------|-----------------------
------------------|-----3/7-------8--|----------------|-----------------------
------------------|------------------|-8--------------|-----------------------
------------------|------------------|----------------|-----------------------
bridge - play with solo riff 1

---------|----------------|----------|----------|---|-------------------------
---------|----------------|----------|----------|---|-------------------------
-3-------|----------------|-3--------|----------|---|-------------------------
-3-------|-4--------------|-3--------|-3--------|-x2|-------------------------
-1-------|-4--------------|-1--------|-3--------|---|-------------------------
---------|-2--------------|----------|-1--------|---|-------------------------
chorus riff 1

----------------|-------------------------------------------------------------
----------------|-------------------------------------------------------------
-6/7/6------7/--|-------------------------------------------------------------
-7/8/7------8/--|-x16---------------------------------------------------------
----------------|-------------------------------------------------------------
----------------|-------------------------------------------------------------
riff 2

----------|-----------|----------|--------|-----------------------------------
----------|-----------|----------|--------|-----------------------------------
----------|-8---------|-5--------|--------|-----------------------------------
-5--------|-8---------|-5--------|-3------|-x2--------------------------------
-5--------|-6---------|-3--------|-3------|-----------------------------------
-3--------|-----------|----------|-1------|-----------------------------------

Аккорды Garbage - Queer

intro

riff 1

-------------------|----------------------------------------------------------
-------------------|----------------------------------------------------------
------3-5-5b6r5--3-|----------------------------------------------------------
----5--------------|----------------------------------------------------------
-------------------|----------------------------------------------------------
-------------------|----------------------------------------------------------
riff 2

-20----------------|-----------------|----------------|--------------|--------
-------------------|-20--------------|-15-------------|--------------|--------
-------------------|-----------------|----------------|-15-----------|--------
-------------------|-----------------|----------------|--------------|--------
-------------------|-----------------|----------------|--------------|--------
-------------------|-----------------|----------------|--------------|--------
verse

-----------|------------|-----------------------|-------------------------|---
-----------|------------|-----------------------|-------------------------|---
-----------|------------|---------3-5-5b6r5--3--|-----------3-5-5b6r5--3--|---
-----------|------------|-------5---------------|---------5---------------|---
-----------|------------|-----------------------|-------------------------|---
-----------|------------|-----------------------|-------------------------|---
chorus - riff 1

------------|-------------|-----------|-----------|---------|-------|---|-----
------------|-------------|-----------|-----------|---------|-------|---|-----
------------|-8-----------|-5---------|-----------|-8-------|-5-----|-8-|-8---
-5----------|-8-----------|-5---------|-3---------|-8-------|-5-----|-8-|-8---
-5----------|-6-----------|-3---------|-3---------|-6-------|-3-----|-6-|-6---
-3----------|-------------|-----------|-1---------|---------|-------|---|-----
riff 2

-20---------|-------------|-20--------|-----------|-20------|-------|----|----
------------|-20----------|-----------|-20--------|---------|-20----|1518|----
------------|-------------|-----------|-----------|---------|-------|----|----
------------|-------------|-----------|-----------|---------|-------|----|----
------------|-------------|-----------|-----------|---------|-------|----|----
------------|-------------|-----------|-----------|---------|-------|----|----
solo after chorus - riff 1

------------------|------------------|----------------------------------------
------------------|------------------|----------------------------------------
-9-109-9-10-----10|9-109--9--10---10-|----------------------------------------
-x-x-x-x-x------x-|x-x-x--x--x----x--|-x4-------------------------------------
-7-8-7-7-8------8-|7-8-7--7--8----8--|----------------------------------------
------------------|------------------|----------------------------------------
riff 2

------------------|------------------|----------------|----------|------------
------------------|----------16b18---|----------------|----------|---5b7------
-----------15-----|------------------|-------5b7------|----------|------------
------------------|------------------|----------------|----------|------------
------------------|------------------|----------------|-----8---|------------
------------------|------------------|----------------|----------|------------


----12b141--------|------------------|----------------|-----------------------
------------------|------------------|----------------|-----------------------
------------------|------------------|----------------|-----------------------
------------------|-----3/7-------8--|----------------|-----------------------
------------------|------------------|-8--------------|-----------------------
------------------|------------------|----------------|-----------------------
bridge - play with solo riff 1

---------|----------------|----------|----------|---|-------------------------
---------|----------------|----------|----------|---|-------------------------
-3-------|----------------|-3--------|----------|---|-------------------------
-3-------|-4--------------|-3--------|-3--------|-x2|-------------------------
-1-------|-4--------------|-1--------|-3--------|---|-------------------------
---------|-2--------------|----------|-1--------|---|-------------------------
chorus riff 1

----------------|-------------------------------------------------------------
----------------|-------------------------------------------------------------
-6/7/6------7/--|-------------------------------------------------------------
-7/8/7------8/--|-x16---------------------------------------------------------
----------------|-------------------------------------------------------------
----------------|-------------------------------------------------------------
riff 2

----------|-----------|----------|--------|-----------------------------------
----------|-----------|----------|--------|-----------------------------------
----------|-8---------|-5--------|--------|-----------------------------------
-5--------|-8---------|-5--------|-3------|-x2--------------------------------
-5--------|-6---------|-3--------|-3------|-----------------------------------
-3--------|-----------|----------|-1------|-----------------------------------

Клип Garbage - Queer

Текст песни Queer

Тексты песен Garbage являются собственностью правообладателей и лейбла STUNVOLUME. Контент «Queer» представлен на нашем ресурсе исключительно для ознакомления и личного пользования.
All lyrics are property and copyright of their owners. All lyrics provided for educational purposes and personal use only.

Рекомендуем
Постер Garbage - Untouchable
Garbage - Untouchable
Иностранный рок / 6-04-2021
{views}
Постер Garbage - Push It
Garbage - Push It
Иностранный рок / 12-05-2021
{views}
Постер Garbage - A Stroke Of Luck
Garbage - A Stroke Of Luck
Иностранный рок / 12-04-2021
{views}
Постер Garbage - So Like A Rose
Garbage - So Like A Rose
Иностранный рок / 12-04-2021
{views}
Постер Garbage - My Lovers Box
Garbage - My Lovers Box
Иностранный рок / 12-05-2021
{views}
Комментарии (0)
Добавить
Кликните на изображение чтобы обновить код, если он неразборчив