Постер Garbage - Push It
0 0 00
Слушать

Текст песни Push It
Garbage

!
  • Артист: Garbage
  • Название: Push It
  • Лейбл: STUNVOLUME
  • Просмотров: 23
  • Качество: 320 kbps
  • Добавлено: 12-05-2021

Слова песни Garbage - Push It

Перевод
|-----------------------------------------
|----13----13----13--------9----9----9----
|-10----10----10----10--10---10---10---10-
|-----------------------------------------
|-----------------------------------------
|-----------------------------------------

----------------------------------------|
----11----11----11-------11---11---11---|
-10----10----10----10--8----8----8----8-|
----------------------------------------|
----------------------------------------|
----------------------------------------|


|-------------|
|-------------|
|-3--5--6--8--|
|-3--5--6--8--|
|-1--3--4--6--|
|-------------|


|-------------|
|-------------|
|----6-----8--|
|-3--6--8--8--|
|-3--4--8--6--|
|-1-----6-----|

Lead
|--------------------------------|
|----12-13----9-11-9-11b12r11----|
|-10-------10-----------------10-|
|--------------------------------|
|--------------------------------|
|--------------------------------|


|--------------------------------|
|----12-13----9-11-9-11----------|
|-10-------10--------------------|
|--------------------------------|
|--------------------------------|
|--------------------------------|



Lead
|-----------------------------------|
|-----------------------------------|
|----10-13-12--10-------10----8--12-|
|-10-----------------10----10-------|
|-----------------------------------|
|-----------------------------------|






|-13~~~~--13-13--13~~~~-11-11~~-|
|-------------------------------|
|-10~~~~---------10~~~~---------|
|-------------------------------|
|-------------------------------|
|-------------------------------|







Lead
|-----------------------------------|
|-----------------------------------|
|----10-13-12--10-------10----8--12-|
|-10-----------------10----10-------|
|-----------------------------------|
|-----------------------------------|




|-----|
|-----|
|-----|
|-3-3-|
|-3-3-|
|-1-1-|

Аккорды Garbage - Push It

INTRO/VERSE
|-----------------------------------------
|----13----13----13--------9----9----9----
|-10----10----10----10--10---10---10---10-
|-----------------------------------------
|-----------------------------------------
|-----------------------------------------

----------------------------------------|
----11----11----11-------11---11---11---|
-10----10----10----10--8----8----8----8-|
----------------------------------------|
----------------------------------------|
----------------------------------------|


PRECHORUS
|-------------|
|-------------|
|-3--5--6--8--|
|-3--5--6--8--|
|-1--3--4--6--|
|-------------|


CHORUS
|-------------|
|-------------|
|----6-----8--|
|-3--6--8--8--|
|-3--4--8--6--|
|-1-----6-----|

Lead
|--------------------------------|
|----12-13----9-11-9-11b12r11----|
|-10-------10-----------------10-|
|--------------------------------|
|--------------------------------|
|--------------------------------|


|--------------------------------|
|----12-13----9-11-9-11----------|
|-10-------10--------------------|
|--------------------------------|
|--------------------------------|
|--------------------------------|


VERSE 2

Lead
|-----------------------------------|
|-----------------------------------|
|----10-13-12--10-------10----8--12-|
|-10-----------------10----10-------|
|-----------------------------------|
|-----------------------------------|


PRECHORUS 2 - Same


CHORUS 2 - Same


INTERLUDE - With tremolo effects
|-13~~~~--13-13--13~~~~-11-11~~-|
|-------------------------------|
|-10~~~~---------10~~~~---------|
|-------------------------------|
|-------------------------------|
|-------------------------------|


PRECHORUS 3 - Everything tacet


CHORUS 3 - Same


BRIDGE

Lead
|-----------------------------------|
|-----------------------------------|
|----10-13-12--10-------10----8--12-|
|-10-----------------10----10-------|
|-----------------------------------|
|-----------------------------------|


CHORUS 4 - Same


End on
|-----|
|-----|
|-----|
|-3-3-|
|-3-3-|
|-1-1-|

Клип Garbage - Push It

Текст песни Push It

Тексты песен Garbage являются собственностью правообладателей и лейбла STUNVOLUME. Контент «Push It» представлен на нашем ресурсе исключительно для ознакомления и личного пользования.
All lyrics are property and copyright of their owners. All lyrics provided for educational purposes and personal use only.

Рекомендуем
Постер Garbage - Untouchable
Garbage - Untouchable
Иностранный рок / 6-04-2021
{views}
Постер Garbage - A Stroke Of Luck
Garbage - A Stroke Of Luck
Иностранный рок / 12-04-2021
{views}
Постер Garbage - So Like A Rose
Garbage - So Like A Rose
Иностранный рок / 12-04-2021
{views}
Постер Garbage - My Lovers Box
Garbage - My Lovers Box
Иностранный рок / 12-05-2021
{views}
Постер Garbage - When I Grow Up
Garbage - When I Grow Up
Иностранный рок / 6-04-2021
{views}
Комментарии (0)
Добавить
Кликните на изображение чтобы обновить код, если он неразборчив