Text-Pesni.ws » Рок » Иностранный рок » Garbage - My Lovers Box
Постер Garbage - My Lovers Box
0 0 00
Слушать

Текст песни My Lovers Box
Garbage

!
  • Артист: Garbage
  • Название: My Lovers Box
  • Лейбл: STUNVOLUME
  • Просмотров: 19
  • Качество: 320 kbps
  • Добавлено: 12-05-2021

Слова песни Garbage - My Lovers Box

Перевод
INTRO
|-----------------|
|-----------------|
|---------5-5-5-5-|
|-5-5-5-5-5-5-5-5-|
|-5-5-5-5-3-3-3-3-|
|-3-3-3-3---------|

Lead
|-18----1817-----1715-----1513----10---108----86----63----|
|---------------------------------------------------------------|
|----15--------14--------12-------------7-------5------3--------|
|---------------------------------------------------------------|
|---------------------------------------------------------------|
|---------------------------------------------------------------|


|-------------------------------------------|
|-3--3---3---3--3---3---3--3---3---6--------|
|-3--3---3---3--3---3---3--3---3---5--------|
|-5--5---5---5--5---5---5--5---5---5--------|
|-6--6---6---6--6---6---6--6---6---3--------|
|-------------------------------------------|









|-----------------------------------------|
|-----------------------------------------|
|-7--------8------------------------------|
|-7--------8---5--------8-----------------|
|-5--------6---5--------8-----------------|
|--------------3--------6-----------------|
|-----------------------------------------|
|-----------------------------------15----|
|--------------12-14-14-15-14-12----------|
|--------------------------------15-------|
|-----------------------------------------|
|-----------------------------------------|

|-----------------------------------------|
|-----------------------------------------|
|-7--------8------------------------------|
|-7--------8---5--------8-----------------|
|-5--------6---5--------8-----------------|
|--------------3--------6-----------------|
|-----------------------------------------|
|-----------------------------------------|
|--------------12-14-14-15-14-12----------|
|--------------------------------15-12----|
|-----------------------------------------|
|-----------------------------------------|

|-----------------------------------------|
|-----------------------------------------|
|-7--------8------------------------------|
|-7--------8---5--------8-----------------|
|-5--------6---5--------8-----------------|
|--------------3--------6-----------------|
|-----------------------------------------|
|-----------------------------------15----|
|--------------12-14-14-15-14-12----------|
|--------------------------------15-------|
|-----------------------------------------|
|-----------------------------------------|








OUTRO
|-----------------------------------------|
|-----------------------------------------|
|-7--------8------------------------------|
|-7--------8---5--------8-----------------|
|-5--------6---5--------8-----------------|
|--------------3--------6-----------------|

Аккорды Garbage - My Lovers Box

INTRO
|-----------------|
|-----------------|
|---------5-5-5-5-|
|-5-5-5-5-5-5-5-5-|
|-5-5-5-5-3-3-3-3-|
|-3-3-3-3---------|

Lead
|-18----1817-----1715-----1513----10---108----86----63----|
|---------------------------------------------------------------|
|----15--------14--------12-------------7-------5------3--------|
|---------------------------------------------------------------|
|---------------------------------------------------------------|
|---------------------------------------------------------------|


VERSE
|-------------------------------------------|
|-3--3---3---3--3---3---3--3---3---6--------|
|-3--3---3---3--3---3---3--3---3---5--------|
|-5--5---5---5--5---5---5--5---5---5--------|
|-6--6---6---6--6---6---6--6---6---3--------|
|-------------------------------------------|


CHORUS - Play intro


VERSE 2 - Same


CHORUS 2 - Same


INTERLUDE

Guitar 1
|-----------------------------------------|
|-----------------------------------------|
|-7--------8------------------------------|
|-7--------8---5--------8-----------------|
|-5--------6---5--------8-----------------|
|--------------3--------6-----------------|
|Guitar 2
|-----------------------------------------|
|-----------------------------------15----|
|--------------12-14-14-15-14-12----------|
|--------------------------------15-------|
|-----------------------------------------|
|-----------------------------------------|

Guitar 1
|-----------------------------------------|
|-----------------------------------------|
|-7--------8------------------------------|
|-7--------8---5--------8-----------------|
|-5--------6---5--------8-----------------|
|--------------3--------6-----------------|
|Guitar 2
|-----------------------------------------|
|-----------------------------------------|
|--------------12-14-14-15-14-12----------|
|--------------------------------15-12----|
|-----------------------------------------|
|-----------------------------------------|

Guitar 1
|-----------------------------------------|
|-----------------------------------------|
|-7--------8------------------------------|
|-7--------8---5--------8-----------------|
|-5--------6---5--------8-----------------|
|--------------3--------6-----------------|
|Guitar 2
|-----------------------------------------|
|-----------------------------------15----|
|--------------12-14-14-15-14-12----------|
|--------------------------------15-------|
|-----------------------------------------|
|-----------------------------------------|


BRIDGE - Play intro


VERSE 3 - Same


CHORUS 3 - Same


OUTRO
|-----------------------------------------|
|-----------------------------------------|
|-7--------8------------------------------|
|-7--------8---5--------8-----------------|
|-5--------6---5--------8-----------------|
|--------------3--------6-----------------|

Клип Garbage - My Lovers Box

Текст песни My Lovers Box

Тексты песен Garbage являются собственностью правообладателей и лейбла STUNVOLUME. Контент «My Lovers Box» представлен на нашем ресурсе исключительно для ознакомления и личного пользования.
All lyrics are property and copyright of their owners. All lyrics provided for educational purposes and personal use only.

Рекомендуем
Постер Garbage - Untouchable
Garbage - Untouchable
Иностранный рок / 6-04-2021
{views}
Постер Hayward Justin - Crazy Lovers
Hayward Justin - Crazy Lovers
Иностранный рок / 10-04-2021
{views}
Постер Dave Matthews Band - Say Goodbye
Dave Matthews Band - Say Goodbye
Иностранный рок / 16-04-2021
{views}
Постер Garbage - A Stroke Of Luck
Garbage - A Stroke Of Luck
Иностранный рок / 12-04-2021
{views}
Постер Garbage - So Like A Rose
Garbage - So Like A Rose
Иностранный рок / 12-04-2021
{views}
Комментарии (0)
Добавить
Кликните на изображение чтобы обновить код, если он неразборчив