Text-Pesni.ws » Рок » Иностранный рок » Garbage - Drive You Home
Постер Garbage - Drive You Home
0 0 00
Слушать

Текст песни Drive You Home
Garbage

!
  • Артист: Garbage
  • Название: Drive You Home
  • Лейбл: STUNVOLUMEInfectiousBMG Rights Management (UK)Garbage Unlimited
  • Просмотров: 31
  • Качество: 320 kbps
  • Добавлено: 12-05-2021

Слова песни Garbage - Drive You Home

Перевод
e------------------------------------------------
1. It's funny how

e------------------------------------------------


e------------------------------------------------
1. You still support me


e--3---------------------------------------------
1. after all the things that I've


e------------------------------------------------:||
1. done,


e--0--0-0-0-0--0--0-0-0-0--0--0-0-0-0--0--0-0-0-0


e--0--0-0-0-0--0--0-0-0-0--0--0-0-0-0--0--0-0-0-0

e--0--0-0-0-0--0--0-0-0-0--0--0-0-0-0--0--0-0-0-0
can't say the word 'cause I leap down your throat so up-


e--0--0-0-0-0------------------------------------



e--0--0-0-0-0------0--0-0-0-0--------------------
I never


e--x--x-x-x-x---x--x-x-x-x-----------------------
said I was

e--x--x-x-x-x---x--x-x-x-x---x--x-x-x-x--x-------
perfect,

e---x--x----x---x---0----------------------------

The chords repeated all over the song are :


It's funny how
You still support me after all of the things that I've done
You're so good to me
Waiting patiently

I never said I was perfect

Walk on shells tonight

I never said I was perfect
I got down on myself
Working too hard
Trying to beat out the faults in my head
What a mess I've made
Sure we all make mistakes

I'm praying for a miracle
I never said I was perfect

Аккорды Garbage - Drive You Home

F Fmin
E-----------------------------[0]----------------
B-----------[1]------[0]----------0--------------
G---------0-----0-----------0--------0-----------
D------2-----------2-----2-----------------------
A--[3]----------------2--------------------------
e------------------------------------------------
1. It's funny how

Fmin
E-----------------------------[0]----------------
B-----------[1]------[0]-------0-----------------
G---------2-----2-----------2-----2--------------
D------2-----------2-----2-----------2-----------
A--[0]----------------0--------------------------
e------------------------------------------------
1. Even now,


Gmin
E-----------1------------------------------------
B--------3---------------------------------------
G-----2------------------------------------------
D--0---------------------------------------------
A------------------------------------------------
e------------------------------------------------
1. You still support me


G
E----------[3]-----------------------------------
B------------------------------------------------
G-----------0------------------------------------
D--------0-----0---------------------------------
A-----2-----------2------------------------------
e--3---------------------------------------------
1. after all the things that I've


F Fmin
E-----------------------------[0]----------------:||
B-----------[1]------[0]----------0--------------:||
G---------0-----0-----------0--------0-----------:||
D------2-----------2-----2-----------------------:||
A--[3]----------------2--------------------------:||
e------------------------------------------------:||
1. done,


F
E--0--0-0-0-0--0--0-0-0-0--0--0-0-0-0--0--0-0-0-0
B--1--1-1-1-1--1--1-1-1-1--1--1-1-1-1--1--1-1-1-1
G--0--0-0-0-0--0--0-0-0-0--0--0-0-0-0--0--0-0-0-0
D--2--2-2-2-2--2--2-2-2-2--2--2-2-2-2--2--2-2-2-2
A--3--3-3-3-3--3--3-3-3-3--3--3-3-3-3--3--3-3-3-3
e--0--0-0-0-0--0--0-0-0-0--0--0-0-0-0--0--0-0-0-0
Walk on shells tonight, Can't Do


Fmin
E--0--0-0-0-0--0--0-0-0-0--0--0-0-0-0--0--0-0-0-0
B--1--1-1-1-1--1--1-1-1-1--1--1-1-1-1--1--1-1-1-1-
G--2--2-2-2-2--2--2-2-2-2--2--2-2-2-2--2--2-2-2-2
D--2--2-2-2-2--2--2-2-2-2--2--2-2-2-2--2--2-2-2-2
A--0--0-0-0-0--0--0-0-0-0--0--0-0-0-0--0--0-0-0-0
e--0--0-0-0-0--0--0-0-0-0--0--0-0-0-0--0--0-0-0-0
right tonight, And you

F Fmin
E--0--0-0-0-0--0--0-0-0-0--0--0-0-0-0--0--0-0-0-0
B--1--1-1-1-1--1--1-1-1-1--1--1-1-1-1--1--1-1-1-1
G--0--0-0-0-0--0--0-0-0-0--2--2-2-2-2--2--2-2-2-2
D--2--2-2-2-2--2--2-2-2-2--2--2-2-2-2--2--2-2-2-2
A--3--3-3-3-3--3--3-3-3-3--0--0-0-0-0--0--0-0-0-0
e--0--0-0-0-0--0--0-0-0-0--0--0-0-0-0--0--0-0-0-0
can't say the word 'cause I leap down your throat so up-


Fmin
E--0--0-0-0-0------------------------------------
B--0--0-0-0-0------------------------------------
G--0--0-0-0-0------------------------------------
D--2--2-2-2-2------------------------------------
A--2--2-2-2-2------------------------------------
e--0--0-0-0-0------------------------------------
tight Am I,



Fmin Fmin
E--0--0-0-0-0------0--0-0-0-0--------------------
B--1--1-1-1-1------1--1-1-1-1--------------------
G--2--2-2-2-2------2--2-2-2-2--------------------
D--2--2-2-2-2------2--2-2-2-2--------------------
A--0--0-0-0-0------0--0-0-0-0--------------------
e--0--0-0-0-0------0--0-0-0-0--------------------
I never


Fsus2 Fsus2
E--0--0-0-0-0---0--0-0-0-0-----------------------
B--0--0-0-0-0---0--0-0-0-0-----------------------
G--2--2-2-2-2---2--2-2-2-2-----------------------
D--2--2-2-2-2---2--2-2-2-2-----------------------
A--0--0-0-0-0---0--0-0-0-0-----------------------
e--x--x-x-x-x---x--x-x-x-x-----------------------
said I was

C
E--1--1-1-1-1---0--0-0-0-0---1--1-1-1-1--1-------
B--1--1-1-1-1---1--1-1-1-1---1--1-1-1-1--1-------
G--2--2-2-2-2---2--2-2-2-2---2--2-2-2-2--2-------
D--3--3-3-3-3---3--3-3-3-3---3--3-3-3-3--3-------
A--3--3-3-3-3---3--3-3-3-3---3--3-3-3-3--3-------
e--x--x-x-x-x---x--x-x-x-x---x--x-x-x-x--x-------
perfect,

F
E---x--x----x---x---0----------------------------
B---1--3----4---3---1----------------------------
G---1--1----1---1---0----------------------------
D---1--1----1---1---2----------------------------
A---x--x----x---x---3----------------------------
e---x--x----x---x---0----------------------------
But I can take you away.

The chords repeated all over the song are :

F - Fm - Gm - G7

F
It's funny how
Fm
Even now
Gm G7 F
You still support me after all of the things that I've done
F
You're so good to me
Fm
Waiting patiently
Gm G7 F
And isn't it sad that you still have to ask if I care?

F Fm Gm G7
I never said I was perfect
F Fm Gm G7 F
But I can take you away

F
Walk on shells tonight
Fm
Can't Do right tonight
Gm
And you can't say a word
G7
Cause I leap down your throat
F
So uptight Am I

I never said I was perfect
But I can drive you home
I got down on myself
Working too hard
Driving myself to death
Trying to beat out the faults in my head
What a mess I've made
Sure we all make mistakes
But they see me so large that they think I'm immune to the pain

I'm praying for a miracle
But I won't hold my breath
I never said I was perfect
But can you drive me

Клип Garbage - Drive You Home

Текст песни Drive You Home

Тексты песен Garbage являются собственностью правообладателей и лейбла STUNVOLUMEInfectiousBMG Rights Management (UK)Garbage Unlimited. Контент «Drive You Home» представлен на нашем ресурсе исключительно для ознакомления и личного пользования.
All lyrics are property and copyright of their owners. All lyrics provided for educational purposes and personal use only.

Рекомендуем
Постер Garbage - Milk
Garbage - Milk
Иностранный рок / 12-05-2021
{views}
Постер Jack White - Trash Tongue Talker
Jack White - Trash Tongue Talker
Иностранный рок / 26-03-2021
{views}
Постер Garbage - Untouchable
Garbage - Untouchable
Иностранный рок / 6-04-2021
{views}
Постер Garbage - Cup Of Coffee
Garbage - Cup Of Coffee
Иностранный рок / 12-05-2021
{views}
Постер Garbage - A Stroke Of Luck
Garbage - A Stroke Of Luck
Иностранный рок / 12-04-2021
{views}
Комментарии (0)
Добавить
Кликните на изображение чтобы обновить код, если он неразборчив