Text-Pesni.ws » Рок » Иностранный рок » Alice In Chains - Would
Постер Alice In Chains - Would
0 0 00
Слушать

Текст песни Would
Alice In Chains

!
  • Артист: Alice In Chains
  • Название: Would
  • Лейбл: BBC
  • Просмотров: 26
  • Качество: 320 kbps
  • Добавлено: 5-05-2021

Слова песни Alice In Chains - Would

Перевод
h = hammer
p = pulloff
b = bend
// = vibrato (?) ( bend the note really fast or use the bar.)
P.M. = Palm Mute
harm = harmonic
---x--- ---3---
---x--- ---3---
---4--- ---0---
---4--- ---0---
---2--- ---x---
---x--- ---3---
The spacing between notes is not exactly correct because it was really hard
to get the notes to line up with the lyrics.

To start off if you want to play the bass part on a guitar I think it goes like this:
---------------------------------------------------------------------------
---------------------------------------------------------------------------
---------------------------------------------------------------------------
---------------------------------------------------------------------------
---------------------------------------------------------------------------
--0h2--2--2--2--0--0--0---2--3---3---3--3--3b--0--0---0--3--0--0---0---0--0

---- guitars come in about here.
The backing guitars play this during the solo and it seems really close.
Tune down 1/2 step
Would?___________
---------------------------------------------------------------------
------------------------------------------------------------------5--
-4h6----4h6----4--4----------4h6---4h6----4--4----(4)----------4-----
-4------4------4--5----------4-----4------4--5------------4/5--------
---------------------------------------------------------------------
---------------------------------------------------------------------

[//////////////] (1/2 to full) [//////]
------------------------------------------------------------------0--
-5h7------------------------------------------5bb-----------------0--
-------------------------------------------------------6-------------
---------------------------------------------------------------------
---------------------------------------------------------------------
---------------------------------------------------------------------

---------------------------------------------------------------------
---------------------------------------------------------------------
-4h6----4h6----4--4----------4h6---4h6----4--4-----------------------
-4------4------4--5----------4-----4------4--5--------------------2--
---------------------------------------------------------------2-----
----------------------------------------------------------2/3--------



---------------------------------------------------------------------
---------------------------------------------------------------------
-4h6----4h6----4--4-------------------------------2h4----------------
-4------4------4--5-----------------------------------4--------------
---------------------------------------------------------------------
---------------------------------------------------------------------

---------------------------------------------------------------------
---------------------------------------------------------------------
---------------------------------------------------------------------
------------------------------------------------------------------2--
-2h4----2h4----2--2-----------2h4----2h4----2--2---------------2-----
-2------2------2--3-----------2------2------2--3----------2/3--------
1.Know me bro-ken by my mas - ster.
Teach thee on child, love here-af - ter


[///////////] [///]
------------------------------------------------------------------------
---------------------------------------0-----------------7--------------
-7-----------6----------------------------------6-----7-------7----6----
------------------------------------------------------------------------
------------------------------------------------------------------------
------------------------------------------------------------------------
In to the flood again same old trip it was back then.____
[///] [//]
--------------------7---7--
------0---------7-------7--
----------6----------------
---------------------------
---------------------------
---------------------------
________
* 6b(6) = bend 1/2 and release
[///////////////] [*] [///]
---------------------------------------------------------------------------
-------------------------------------------0--------------------7----------
---7-----------6------6----------------------------6-------6--7---6b(6)----
---------------------------------------------------------------------------
---------------------------------------------------------------------------
---------------------------------------------------------------------------
So I made a big mistake___________ try to see it once ny way._________
[/////////]
-------------------
-------------------
----------------2--
-------------------
-------------------
-------------------
____________
Solo
[] [/////////] (full)
-----------------------------------------------------------------------5---
---------------------------------------7--------------------5--5b----------
--4-6-4-6-4-6-4-6-4-6-4-6-4-6-4-6-4-6--------------------------------------
---------------------------------------------------------------------------
---------------------------------------------------------------------------
---------------------------------------------------------------------------
harm
[////////// *]
---------------------------------------------------------------------------
---------------------------------------------------------------------------
--4h6--6--6--------4h6p4-----------(4)-----------------------7b(7)---------
---------------------------------------------------------------------------
---------------------------------------------------------------------------
---------------------------------------------------------------------------
*This is what it looked like
[full------]
[/] []
[/] []
[7] [(7)] [(7)]
[///////////] [////] [PM mute]
fdbk harm fdbk
---------------------------------------------------------------(5)---------
--7-----------------------------5h7----------------------------(5)---------
---------------------------------------------------------------------------
-----7-4-------------------------------------------------------------------
-------------------------(9)------------4---------4--2--2--2---------------
---------------------------------------------------------------------------
P.M.--------------------------------------------------------
---------------------------------------------------------------------------
---------------------------------------------------------------------------
---------------------------------------------------------------------------
---------------------------------------------------------------------------
--6-(x11)---5-(x12)---2---4---4---2--5-----0--4--0--2--0--4--0-------------
--4---------3---------0---0---0---0--0-------------------------------------
repeat (x3)
Then play
If I would, could you?
[1 3
0 x
2 2
3 3
x x
1 1]
I think that is it.

Аккорды Alice In Chains - Would

h = hammer
p = pulloff
b = bend
// = vibrato (?) ( bend the note really fast or use the bar.)
P.M. = Palm Mute
harm = harmonic
B5 G5
---x--- ---3---
---x--- ---3---
---4--- ---0---
---4--- ---0---
---2--- ---x---
---x--- ---3---
The spacing between notes is not exactly correct because it was really hard
to get the notes to line up with the lyrics.

To start off if you want to play the bass part on a guitar I think it goes like this:
---------------------------------------------------------------------------
---------------------------------------------------------------------------
---------------------------------------------------------------------------
---------------------------------------------------------------------------
---------------------------------------------------------------------------
--0h2--2--2--2--0--0--0---2--3---3---3--3--3b--0--0---0--3--0--0---0---0--0

---- guitars come in about here.
The backing guitars play this during the solo and it seems really close.
Tune down 1/2 step
Guitars 1&2
A fdbk----------
[Eb-----------------------------0-------------------------------------
Bb------------------------------------------------(0)----------------
Gb----------------------------------6-------------(0)----------------
Db---------------7---------7-----------------------------------------
Ab------------7----------7-------------------------------------------
Eb-------------------------------------------------------------------]
Would?___________
Rhy. Fig A
---------------------------------------------------------------------
------------------------------------------------------------------5--
-4h6----4h6----4--4----------4h6---4h6----4--4----(4)----------4-----
-4------4------4--5----------4-----4------4--5------------4/5--------
---------------------------------------------------------------------
---------------------------------------------------------------------

Gtr. 3 (plays 1st time only)
[//////////////] (1/2 to full) [//////]
------------------------------------------------------------------0--
-5h7------------------------------------------5bb-----------------0--
-------------------------------------------------------6-------------
---------------------------------------------------------------------
---------------------------------------------------------------------
---------------------------------------------------------------------

---------------------------------------------------------------------
---------------------------------------------------------------------
-4h6----4h6----4--4----------4h6---4h6----4--4-----------------------
-4------4------4--5----------4-----4------4--5--------------------2--
---------------------------------------------------------------2-----
----------------------------------------------------------2/3--------



---------------------------------------------------------------------
---------------------------------------------------------------------
-4h6----4h6----4--4-------------------------------2h4----------------
-4------4------4--5-----------------------------------4--------------
---------------------------------------------------------------------
---------------------------------------------------------------------

VERSE
Rhy. Fig 1
---------------------------------------------------------------------
---------------------------------------------------------------------
---------------------------------------------------------------------
------------------------------------------------------------------2--
-2h4----2h4----2--2-----------2h4----2h4----2--2---------------2-----
-2------2------2--3-----------2------2------2--3----------2/3--------
1.Know me bro-ken by my mas - ster.
Rhy. Fig 1 (1st 3 bars)
Teach thee on child, love here-af - ter

CHORUS
Rhy. Fig 2
Gtr. 1&2
(end Rhy. Fig 2) w/ Rhy.Fig 2 (3 times)
B5 G5

Gtr.3
[///////////] [///]
------------------------------------------------------------------------
---------------------------------------0-----------------7--------------
-7-----------6----------------------------------6-----7-------7----6----
------------------------------------------------------------------------
------------------------------------------------------------------------
------------------------------------------------------------------------
In to the flood again same old trip it was back then.____
[///] [//]
--------------------7---7--
------0---------7-------7--
----------6----------------
---------------------------
---------------------------
---------------------------
________
* 6b(6) = bend 1/2 and release
[///////////////] [*] [///]
---------------------------------------------------------------------------
-------------------------------------------0--------------------7----------
---7-----------6------6----------------------------6-------6--7---6b(6)----
---------------------------------------------------------------------------
---------------------------------------------------------------------------
---------------------------------------------------------------------------
So I made a big mistake___________ try to see it once ny way._________
[/////////]
-------------------
-------------------
----------------2--
-------------------
-------------------
-------------------
____________
At this point I am going to get lazy because this is taking too long to do.
Solo
[] [/////////] (full)
-----------------------------------------------------------------------5---
---------------------------------------7--------------------5--5b----------
--4-6-4-6-4-6-4-6-4-6-4-6-4-6-4-6-4-6--------------------------------------
---------------------------------------------------------------------------
---------------------------------------------------------------------------
---------------------------------------------------------------------------
harm
[////////// *]
---------------------------------------------------------------------------
---------------------------------------------------------------------------
--4h6--6--6--------4h6p4-----------(4)-----------------------7b(7)---------
---------------------------------------------------------------------------
---------------------------------------------------------------------------
---------------------------------------------------------------------------
*This is what it looked like
[full------]
[/] []
[/] []
[7] [(7)] [(7)]
[///////////] [////] [PM mute]
fdbk harm fdbk
---------------------------------------------------------------(5)---------
--7-----------------------------5h7----------------------------(5)---------
---------------------------------------------------------------------------
-----7-4-------------------------------------------------------------------
-------------------------(9)------------4---------4--2--2--2---------------
---------------------------------------------------------------------------
For the part where it goes
Yeah. Am I wrong? Have I run too far to get home?
Its D-------------------> to here then it goes into the power chords
P.M.--------------------------------------------------------
---------------------------------------------------------------------------
---------------------------------------------------------------------------
---------------------------------------------------------------------------
---------------------------------------------------------------------------
--6-(x11)---5-(x12)---2---4---4---2--5-----0--4--0--2--0--4--0-------------
--4---------3---------0---0---0---0--0-------------------------------------
repeat (x3)
Then play
F(#4) F(#4) F(#4) F(#4) Fadd9
If I would, could you?
F(#4) Fadd9
[1 3
0 x
2 2
3 3
x x
1 1]
I think that is it.

Клип Alice In Chains - Would

Текст песни Would

Тексты песен Alice In Chains являются собственностью правообладателей и лейбла BBC. Контент «Would» представлен на нашем ресурсе исключительно для ознакомления и личного пользования.
All lyrics are property and copyright of their owners. All lyrics provided for educational purposes and personal use only.

Рекомендуем
Постер Knopfler Mark - Darling Pretty
Knopfler Mark - Darling Pretty
Иностранный рок / 10-03-2021
{views}
Постер Rolling Stones - Sweet Black Angel
Rolling Stones - Sweet Black Angel
Иностранный рок / 31-01-2021
{views}
Постер Genesis - Congo
Genesis - Congo
Иностранный рок / 12-04-2021
{views}
Постер Three Days Grace - Rooster
Three Days Grace - Rooster
Иностранный рок / 25-03-2021
{views}
Постер Cohen Leonard - Who by Fire
Cohen Leonard - Who by Fire
Иностранный рок / 29-04-2021
{views}
Комментарии (0)
Добавить
Кликните на изображение чтобы обновить код, если он неразборчив