Text-Pesni.ws » Рок » Хард-рок » Led Zeppelin - Dancing Days
Постер Led Zeppelin - Dancing Days
0 0 00
Слушать

Текст песни Dancing Days
Led Zeppelin

!
  • Артист: Led Zeppelin
  • Название: Dancing Days
  • Лейбл: Atlantic
  • Просмотров: 9
  • Качество: 320 kbps
  • Добавлено: 22-11-2021

Слова песни Led Zeppelin - Dancing Days

Перевод
Dancing days are here again
As the summer evenings grow
I got my flower, I got my power
I got a woman who knows.Dancing days are here again
As the summer evenings grow
I got my flower, I got my power
I got a woman who knows.
I said it’s alright
You know it’s alright
I guess it’s all in my heart
You’ll be my only, my one and only
Is that the way it should start?
Crazy ways are evident
In the way that you’re wearing your clothes
Suppin’boze is precedent
As the evening starts to glow.
I told your mamma I’d get you home
But I didn’t tell her I had no car
I saw a lion he was standing alone
With a tadpole in a jar.
Dancing days are here again
As the summer evening grows
You are my flower, you are my power
You are my woman who knows.

Аккорды Led Zeppelin - Dancing Days

This song has at least three guitars, tuned with their high
E`s to D: EADGBD

The opening rhythm is played almost exactly the same by two
guitars:
With this rhythm figure: And the slide on the third measure:
D|-0----------0--------------------------------|
B|-2-3-2--3p2-0---------------------------5/75-|
G|-0-0-0--0---0--------------------------------|
D|-0-0-0--0---0---------------------------5/75-|
A|---------------------------------------------|
E|---------------------------------------------|

During the vocals, one guitar does this Chuck Berry like thing:

D|---------------------------------------|
B|---------------------------------------|
G|-5--5--7-7--5---6-6-8-8-6--5-5-7-7-5-5-|
D|-3--3--3-3--3---4-4-4-4-4--3-3-3-3-3-3-|
A|---------------------------------------|
E|---------------------------------------|

And during the "You know its alright" stuff:
D|---------------------------------------|
B|---------------------------------------|
G|-5-5-7-7-5---3-3--5-5--3--2-2-3-3-2--2-|
D|-3-3-3-3-3---1-1--1-1--1--0-0-0-0-0--0-|
A|---------------------------------------|
E|---------------------------------------|

The other guitar plays this:

D|-7--5--7-7--5---8--6--8-8--6---7--5--7--7--5-|
B|-6--5--6-6--5---8--6--8-8--6---6--5--6--6--5-|
G|-5--5--5-5--5---6--6--6-6--6---5--5--5--5--5-|
D|---------------------------------------------|
A|---------------------------------------------|
E|---------------------------------------------|
And during the "You know its allright" part:

D|-7-5--7-7--5---5--3--5--5--3--3-2--3-3---5p3p2-|
B|-6-5--6-6--5---5--3--5--5--3--3-2--3-3---2-----|
G|-5-5--5-5--5---3--3--3--3--3--2-2--2-2---2-----|
D|-----------------------------------------------|
A|-----------------------------------------------|
E|-----------------------------------------------|

The ascending riff during the vocals is:

D|-------------8-----8-8/10---10/118---------------------|
B|---------5-8------------------------------1715----1714-|
G|-------5----------------------------------1715----1714-|
D|-----5------------------------------------1715----1714-|
A|-5/7---------------------------------------------------|
E|-------------------------------------------------------|

The solo goes something like this:
D|-------------------------------------------------------------|
B|-------------------------------------------------------------|
G|-3-0-0-3-0-5-0-6-8/10-8/10-8-8/10-8/10-8-8/10-8/10-8-6-8-8/10|
D|-------------------------------------------------------------|
A|-------------------------------------------------------------|
E|-------------------------------------------------------------|

D|-----|
B|-----|
G|-2/5-|
D|-----|
A|-----|
E|-----|

Then just play the rythym riff up here:

D|-11--12--11-12p11p9-|
B|--------------------|
G|--------------------|
D|--------------------|
A|--------------------|
E|--------------------|

Клип Led Zeppelin - Dancing Days

Текст песни Dancing Days

Тексты песен Led Zeppelin являются собственностью правообладателей и лейбла Atlantic. Контент «Dancing Days» представлен на нашем ресурсе исключительно для ознакомления и личного пользования.
All lyrics are property and copyright of their owners. All lyrics provided for educational purposes and personal use only.

Рекомендуем
Постер Led Zeppelin - Bron Yr Aur Stomp
Led Zeppelin - Bron Yr Aur Stomp
Хард-рок / 22-03-2021
{views}
Постер Led Zeppelin - The Ocean
Led Zeppelin - The Ocean
Хард-рок / 7-03-2021
{views}
Постер Led Zeppelin - Black Mountain` Side
Led Zeppelin - Black Mountain` Side
Хард-рок / 22-03-2021
{views}
Постер Extreme - Decadence Dance
Extreme - Decadence Dance
Хард-рок / 1-11-2021
{views}
Постер Led Zeppelin - Bring It On Home
Led Zeppelin - Bring It On Home
Хард-рок / 22-03-2021
{views}
Комментарии (0)
Добавить
Кликните на изображение чтобы обновить код, если он неразборчив