Text-Pesni.ws » Рок » Хард-рок » Tenacious D - Rock Your Socks Off
Постер Tenacious D - Rock Your Socks Off
0 0 00
Слушать

Текст песни Rock Your Socks Off
Tenacious D

!
  • Артист: Tenacious D
  • Название: Rock Your Socks Off
  • Лейбл: Sony
  • Просмотров: 50
  • Качество: 320 kbps
  • Добавлено: 12-02-2021

Слова песни Tenacious D - Rock Your Socks Off

Перевод
It doesn’t matter if it is good
It only matters if it rocks
The main thing that we do
Is to rock your socks offIt doesn’t matter if it is good
It only matters if it rocks
The main thing that we do
Is to rock your socks off
There’s no such thing as a rock prodigy
'Cause rock-n-roll is bogus
Right KG? Right
Only thing that really matters
Is a classical sauce
And that’s why me and KG
Are classically trained
To rock your fuckin' socks off
Give 'em a taste KG
(Okay)
That is Bach
And it rocks
It’s a rock block of Bach
That he learned in the school
Called the school of hard knocks
Give it up for KG, give it up for me
Give it up for KG, give it up for me
Give it up for rock, give it up for blues
Give it up for everything that is not to lose
Now rock your socks off woman
We’ll rock your shit up y’all
Give it up children now to freak your shit out
All right
Now I know what a lot of you are saying
«I just figured out what I’m gonna do
With the rest of my days
I’m gonna get me an oversized guitar
Gain forty pounds
And be the next D!»
Well, I got sour news for you Jack
It ain’t that easy
For instance
Are you willing to make the commitment
To waking up at the crack of noon
For deep-knee rock squats
Seven or eight at a time
In a row
How 'bout are you willing to make the commitment
To rock hard tasty abs, washer board style
Glistening in the sun
How 'bout are you willing to make the commitment
Waking up, going «Okay, it’s gig time
What T-shirt am I gonna wear?
Can’t decide, can’t decide
Brain aneurysm!»
We’ve been through so much bullshit
Just to be here tonight
To rock your fuckin' socks off
And all we ask in return is so precious little
All we’re askin' you to do
Is drop trou'
And squeeze out
A Cleveland Steamer
On my chest
(Oh…)
Two, three, four
Give it up for KG, give it up for me
Give it up for KG, give it up for me
Give it up for rock, give it up for blues
Give it up for everything that is not to lose
Now rock your socks off woman
We’ll rock your shit up y’all
Give it up children, not to freak your shit out
Ah-all right
Aw
What?!
Aah
Yeah!
Aaah
Yeaaah

Аккорды Tenacious D - Rock Your Socks Off

Интро & Main Куплет: Part I: This riff is sweet and fairly easy.
--------------------------------------------------------------------------
--------------------------------------------------------------------------
--------------------------------------------------------------------------
--------------------------------------------------------------------------
--------------------------------------------------------------------------
----0-0-0-0--3-3-3-3--6-6-6-6--5-3-5-3----------------------------

e|--0--2------3----2--0--------0--2---------------------------|
b|------------------------4------------0----2--4--5----3--1---|
g|-----------------------------------------------------------|
d|-----------------------------------------------------------|
a|-----------------0------2----0------------------------------|
e|--3--2------0------------------------3----2-----0----2------|

e|----------------------|--------------------0--2--|--3----2--0-------0--2--|
b|-0--------------------|-0------------------------|-------------4----------|
g|------2--0-------0--2-|----2--0------------------|------------------------|
d|------------4---------|-----------4--2-----------|------------------------|
a|------0-----2----0----|-------2------------------|-------0-----2----0-----|
e|-3--------------------|-3------------0--2--3--2--|--0---------------------|

-----------------------------------------------------------|
0----2--4--5----3--1----0---------------------0------------|
----------------------------2--0-------0--2-----2--0-------|
----------------------------------4--------------------4--2|
----------------------------0-----2----0-----------2-------|
3----2-----0----2-------3---------------------3-----------0|


E(repeat as needed) A B E
----------------------------------------------------------------------|
9-9-9-9-9-9-9----------------------------------------9-9-7-9-9-9-----|
9-9-9-9-9-9-9----------------------------------------9-9-7-9-9-9-----|
9-9-9-9-9-9-9-------7-7-7-7-7-7-7-7---9-9-9-9-9-9-9--9-9-7-9-9-9-----|
7-7-7-7-7-7-7-------7-7-7-7-7-7-7-7---9-9-9-9-9-9-9--7-7-7-7-7-7-----|
---------------------5-5-5-5-5-5-5-5---7-7-7-7-7-7-7------------------|


Lyrics:
Part I
Itsn't matter if it isd, it only matters if it rocks
the main thing that we Do is to rock your socks off
There's no such thing as a rock prodigy, cuz rock and roll isus
rightKG? right, only thing that really matters is a classical sauce.
and thats why me andKG are classically trained to rock your freakin' socks off
give Em a tasteKG, KG) Alright.

Part II
That is Bach and it rocks, its a rock block of Bach, that he learned,
in a school called the school of hard knocks

Part III
E
give it upKG, give it up me,
give it upKG, give it up me,
give it up rock, give it up blues,
give it up everything that is not to lose,
A B E
now rock your socks off woman, to prop your ship up yall.
A B E
Give it up children, now just pack your ship up.

Part I
Now I know what a lot of you here are saying tonight,
you're saying that looks like a fun way to make a living
you know what maybe i'll Go get a guitar, learn some power chords
and make up some funny lyrics, that Go...
I've news you buddy, it is not fun
we put up with so much bull, instance...
t when you'reut to Go on stage
and then the stage manager says,
there is a talent scout in the audience tonight
all of the sudden the mellow gig turns into a fieryp
and youve explosive diarrhea because of the nervous nelly butterflies in your stomach
and thenut this one...
you realize that your manager, that you've trusted years
nd out where your secret stash was, pinched it, stuffed it in her pockets
and then stole some of your loot and snarffed it because you cant trust anybody in the business
all i'm sayin, we've been through so much bull just to be here tonight to rock your freakin' socks off.
and all we ask in return is so precious little, all i'm saying is drop trou, and show us a little of the ol'
(whistle)
and
Part III:
E
give it upKG, give it up me,
give it upKG, give it up me,
give it up rock, give it up blues,
give it up everything that is not to lose,
A B E
now rock your socks off woman, to prop your ship up yall.
A B E
Give it up children, now just freak your sheep out!!

Part IV: He adds this part at the end there is a variation on the E chord right before they start wailing on it. Then it ends with the regular chords (A, B, and E).
----------------------------------------------------------------------------
-9-9-9--12--11-12------------------------------------------------------
-9-9-9--12--11-12------------------------------------------------------
-9-9-9--12--11-12------------------------------------------------------
-7-7-7--10---9--10------------------------------------------------------

Клип Tenacious D - Rock Your Socks Off

Текст песни Rock Your Socks Off

Тексты песен Tenacious D являются собственностью правообладателей и лейбла Sony. Контент «Rock Your Socks Off» представлен на нашем ресурсе исключительно для ознакомления и личного пользования.
All lyrics are property and copyright of their owners. All lyrics provided for educational purposes and personal use only.

Рекомендуем
Постер Tenacious D - Kyle Took A Bullet For Me
Tenacious D - Kyle Took A Bullet For Me
Хард-рок / 12-02-2021
{views}
Постер Tenacious D - Kyle Quit The Band
Tenacious D - Kyle Quit The Band
Хард-рок / 12-02-2021
{views}
Постер Tenacious D - Dio
Tenacious D - Dio
Хард-рок / 10-02-2021
{views}
Постер AC/DC - Rock or Bust
AC/DC - Rock or Bust
Хард-рок / 6-02-2021
{views}
Постер Tenacious D - Friendship
Tenacious D - Friendship
Хард-рок / 10-02-2021
{views}
Комментарии (0)
Добавить
Кликните на изображение чтобы обновить код, если он неразборчив