Text-Pesni.ws » Поп » Lang Jonny - Breakin Me
Постер Lang Jonny - Breakin Me
0 0 00
Слушать

Текст песни Breakin Me
Lang Jonny

!
  • Артист: Lang Jonny
  • Название: Breakin Me
  • Лейбл: A&M
  • Просмотров: 6
  • Качество: 320 kbps
  • Добавлено: 19-11-2021

Слова песни Lang Jonny - Breakin Me

Перевод

I tried to mix the base and guitar together in some parts so I
altered the guitar part so it accommodates the bass. On Solos,
underlay with the intro riff.

If you have a comments, or questions feel free to email me.


Intro riff (repeat 3x)

e------------------------------------3------------3p0--|
b-0h1-1------3p1-1---------------3---3----------1-1----|
g-----0------2---2---------------0-----------0h2-2-----|
d---------2---------2---2------0--0----0---3-----3-----|
a-3---3------0---0-----------------2----2--------------|
^ ^
On 4th time riff changes slightly:

e------------------------------------3-----0---|
b-0h1-1------3p1-1---------------3---3-----1---|
g-----0------2---2---------------0---------2---|
d---------2---------2---2------0--0----0---3---|
a-3---3------0---0-----------------2----2--3---|
^ T

Repeat 4X
e------------------------------------3------------3p0--|
b-0h1-1------3p1-1---------------3---3----------1-1----|
g-----0------2---2---------------0-----------0h2-2-----|
d---------2---------2---2------0--0----0---3-----3-----|
a-3---3------0---0-----------------2----2--------------|
^ ^


e---------0---------------------------0-0-0-3p0-|
b-------3-5-/8-6-5-3-1------1-----1---1-1-1h3p1-|
g---------5-/7-7-5-5-0----0-----0---2-2-2-2-----|
d-3-2-0-----------------0h2----/2---3-3-3-3-----|
a--------------------3-3------------3-3-3-3-----|
T T T T

e---------0----------------------|
b----/6---5-/8-6-5-----6---------|
g----/7---5-/7-7-5-3/5-7?5h7-7---|
d-----0--------------------------|
a-8-7----------------------------|


Repeat 3X
e------------------------------------3------------3p0--|
b-0h1-1------3p1-1---------------3---3----------1-1----|
g-----0------2---2---------------0-----------0h2-2-----|
d---------2---------2---2------0--0----0---3-----3-----|
a-3---3------0---0-----------------2----2--------------|
^ ^

e---------0---------------------------0-0-0-3p0-|
b-------3-5-/8-6-5-3-1------1-----1---1-1-1h3p1-|
g---------5-/7-7-5-5-0----0-----0---2-2-2-2-----|
d-3-2-0-----------------0h2----/2---3-3-3-3-----|
a--------------------3-3------------3-3-3-3-----|
T T T T

e---------0----------------------|
b----/6---5-/8-6-5-----6---------|
g----/7---5-/7-7-5-3/5-7?5h7-7---|
d-----0--------------------------|
a-8-7----------------------------|


Whammy
e-2017-1715-15-12-12h13p12-----------------------------|
b----------------------------13--------------------------|
g-------------------------------12b14b12-------------12-|
d--------------------------------------------12/14-15----|
a--------------------------------------------------------|

e---------------------------------------------------------|
b---------------------------------------------------------|
g---------------------------------------------------------|
d-14h15p14----------------------------------------12-12b14|
a----------15-15/1715---------12-12---12---/12-15--------|

e----------|
b----------|
g----------|
d-10h12----|
a-------12-|


Part 2

e-------7---------7---------7-------------|
b-----5---------5---------5-----------3---|
g---5---------5---------5-----------0---0-|
d-7-------7-6-------6-5-------5h4-------|
a-----------------------------------------|

e-------7---------7---------7---------------------(1/3)--|
b-----5---------5---------5-----------------------(1/3)--|
g---5---------5---------5--------------------------------|
d-7-------7-6-------6-5-------5-0----------------------|
a-----------------------------------53/8----------------|

e-----------------3---0----------------3------------3-|
b-----------------3---1----------------3-0h1p0----1---|
g---9----5--------0---2---9------5-----0------0-------|
d---10---7--------0---3---10-----7-----0--------3-----|
a---10---7--------2---3---10-8p7-7-----2--------------|
T

Repeat 2X
e---------0---------------------------0-0-0-3p0-|
b-------3-5-/8-6-5-3-1------1-----1---1-1-1h3p1-|
g---------5-/7-7-5-5-0----0-----0---2-2-2-2-----|
d-3-2-0-----------------0h2----/2---3-3-3-3-----|
a--------------------3-3------------3-3-3-3-----|
T T T T

On 3rd time:
e---------0---------------3----3-|
b-------3-5-/8-6-5-3-0h1-3-1-3---|
g---------5-/7-7-5-5-------------|
d-3-2-0--------------------------|
a--------------------------------|


Whammy
e---------------------------------------------------------|
b-----------8-108---8~~~~~5-----------------------------|
g-6b8b6-X---7/9 7-7-7~~~~~5------7b8b7-5h7p5------------|
d----------------------------------------------7p5------5-|
a-------------------------------------------------7-5/7---|

e------------------------------------/12-10------------|
b-------------------------------10-13------13----------|
g--------------------------10/12--------------12/1412-|
d-7-7p5------------------------------------------------|
a-------7-5-----5--------------------------------------|

e-----------------------------------------------11/12-13-|
b--------------------------------------------------------|
g--------------------------------------------------------|
d-14h15p14-14h15p14-----10--/14--12-1210----------------|
a-------------------/12-------------------12------------|

e-12-------------17---15--(12)------12-11---------------|
b----13---10h13----------------------------13h15h13---13-|
g--------12------------------------------------------14---|
d---------------------------------------------------------|
a---------------------------------------------------------|

Аккорды Lang Jonny - Breakin Me

Jonny Lang ? Breakin? Me
CD: Wander This World

I tried to mix the base and guitar together in some parts so I
altered the guitar part so it accommodates the bass. On Solos,
underlay with the intro riff.

Tabs interpreted by Ben Walden
If you have a comments, or questions feel free to email me.


Intro riff (repeat 3x)

C Am Gadd9 F?
e------------------------------------3------------3p0--|
b-0h1-1------3p1-1---------------3---3----------1-1----|
g-----0------2---2---------------0-----------0h2-2-----|
d---------2---------2---2------0--0----0---3-----3-----|
a-3---3------0---0-----------------2----2--------------|
E---------------------0---0-/3-------------------------|
^ ^
On 4th time riff changes slightly:

C Am Gadd9 F?
e------------------------------------3-----0---|
b-0h1-1------3p1-1---------------3---3-----1---|
g-----0------2---2---------------0---------2---|
d---------2---------2---2------0--0----0---3---|
a-3---3------0---0-----------------2----2--3---|
E---------------------0---0-/3-------------1---|
^ T

Repeat 4X
C Am Gadd9 F?
e------------------------------------3------------3p0--|
b-0h1-1------3p1-1---------------3---3----------1-1----|
g-----0------2---2---------------0-----------0h2-2-----|
d---------2---------2---2------0--0----0---3-----3-----|
a-3---3------0---0-----------------2----2--------------|
E---------------------0---0-/3-------------------------|
^ ^

Chorus (I think part of its played with a phaser)

C F
e---------0---------------------------0-0-0-3p0-|
b-------3-5-/8-6-5-3-1------1-----1---1-1-1h3p1-|
g---------5-/7-7-5-5-0----0-----0---2-2-2-2-----|
d-3-2-0-----------------0h2----/2---3-3-3-3-----|
a--------------------3-3------------3-3-3-3-----|
E-----------------------------------1-1-1-1-----|
T T T T

e---------0----------------------|
b----/6---5-/8-6-5-----6---------|
g----/7---5-/7-7-5-3/5-7?5h7-7---|
d-----0--------------------------|
a-8-7----------------------------|
E--------------------------------|


Repeat 3X
C Am Gadd9 F?
e------------------------------------3------------3p0--|
b-0h1-1------3p1-1---------------3---3----------1-1----|
g-----0------2---2---------------0-----------0h2-2-----|
d---------2---------2---2------0--0----0---3-----3-----|
a-3---3------0---0-----------------2----2--------------|
E---------------------0---0-/3-------------------------|
^ ^

Chorus
C F?
e---------0---------------------------0-0-0-3p0-|
b-------3-5-/8-6-5-3-1------1-----1---1-1-1h3p1-|
g---------5-/7-7-5-5-0----0-----0---2-2-2-2-----|
d-3-2-0-----------------0h2----/2---3-3-3-3-----|
a--------------------3-3------------3-3-3-3-----|
E-----------------------------------1-1-1-1-----|
T T T T

e---------0----------------------|
b----/6---5-/8-6-5-----6---------|
g----/7---5-/7-7-5-3/5-7?5h7-7---|
d-----0--------------------------|
a-8-7----------------------------|
E--------------------------------|


First Solo
Whammy
e-2017-1715-15-12-12h13p12-----------------------------|
b----------------------------13--------------------------|
g-------------------------------12b14b12-------------12-|
d--------------------------------------------12/14-15----|
a--------------------------------------------------------|
E--------------------------------------------------------|

e---------------------------------------------------------|
b---------------------------------------------------------|
g---------------------------------------------------------|
d-14h15p14----------------------------------------12-12b14|
a----------15-15/1715---------12-12---12---/12-15--------|
E------------------------/12-15------15-------------------|

e----------|
b----------|
g----------|
d-10h12----|
a-------12-|
E----------|


Part 2

e-------7---------7---------7-------------|
b-----5---------5---------5-----------3---|
g---5---------5---------5-----------0---0-|
d-7-------7-6-------6-5-------5h4-------|
a-----------------------------------------|
E-----------------------------------------|

e-------7---------7---------7---------------------(1/3)--|
b-----5---------5---------5-----------------------(1/3)--|
g---5---------5---------5--------------------------------|
d-7-------7-6-------6-5-------5-0----------------------|
a-----------------------------------53/8----------------|
E------------------------------------------1/5h8-53-----|

C Am Gadd9 F?
e-----------------3---0----------------3------------3-|
b-----------------3---1----------------3-0h1p0----1---|
g---9----5--------0---2---9------5-----0------0-------|
d---10---7--------0---3---10-----7-----0--------3-----|
a---10---7--------2---3---10-8p7-7-----2--------------|
E-3/8----5---8/103---1---8------5--/83--------------|
T

Chorus
Repeat 2X
C F?
e---------0---------------------------0-0-0-3p0-|
b-------3-5-/8-6-5-3-1------1-----1---1-1-1h3p1-|
g---------5-/7-7-5-5-0----0-----0---2-2-2-2-----|
d-3-2-0-----------------0h2----/2---3-3-3-3-----|
a--------------------3-3------------3-3-3-3-----|
E-----------------------------------1-1-1-1-----|
T T T T

On 3rd time:
C
e---------0---------------3----3-|
b-------3-5-/8-6-5-3-0h1-3-1-3---|
g---------5-/7-7-5-5-------------|
d-3-2-0--------------------------|
a--------------------------------|
E--------------------------------|


End Solo
Whammy
e---------------------------------------------------------|
b-----------8-108---8~~~~~5-----------------------------|
g-6b8b6-X---7/9 7-7-7~~~~~5------7b8b7-5h7p5------------|
d----------------------------------------------7p5------5-|
a-------------------------------------------------7-5/7---|
E---------------------------------------------------------|

e------------------------------------/12-10------------|
b-------------------------------10-13------13----------|
g--------------------------10/12--------------12/1412-|
d-7-7p5------------------------------------------------|
a-------7-5-----5--------------------------------------|
E-----------8------------------------------------------|

e-----------------------------------------------11/12-13-|
b--------------------------------------------------------|
g--------------------------------------------------------|
d-14h15p14-14h15p14-----10--/14--12-1210----------------|
a-------------------/12-------------------12------------|
E--------------------------------------------------------|

e-12-------------17---15--(12)------12-11---------------|
b----13---10h13----------------------------13h15h13---13-|
g--------12------------------------------------------14---|
d---------------------------------------------------------|
a---------------------------------------------------------|
E---------------------------------------------------------|

Клип Lang Jonny - Breakin Me

Текст песни Breakin Me

Тексты песен Lang Jonny являются собственностью правообладателей и лейбла A&M. Контент «Breakin Me» представлен на нашем ресурсе исключительно для ознакомления и личного пользования.
All lyrics are property and copyright of their owners. All lyrics provided for educational purposes and personal use only.

Рекомендуем
Постер Lang Jonny - Leaving To Stay
Lang Jonny - Leaving To Stay
Поп / 19-11-2021
{views}
Постер Pentatonix - Auld Lang Syne
Pentatonix - Auld Lang Syne
Поп / 12-01-2021
{views}
Постер Sabrina - Kung Pwede Lang
Sabrina - Kung Pwede Lang
Поп / 15-04-2021
{views}
Постер Blue System - Magic Symphony
Blue System - Magic Symphony
Поп / 7-01-2021
{views}
Постер Eraserheads - Pare Ko
Eraserheads - Pare Ko
Поп / 30-03-2021
{views}
Комментарии (0)
Добавить
Кликните на изображение чтобы обновить код, если он неразборчив