Text-Pesni.ws » Поп » Harper Ben - Please Me Like You Want To
Постер Harper Ben - Please Me Like You Want To
0 0 00
Слушать

Текст песни Please Me Like You Want To
Harper Ben

!
  • Артист: Harper Ben
  • Название: Please Me Like You Want To
  • Лейбл: Virgin Records America
  • Просмотров: 11
  • Качество: 320 kbps
  • Добавлено: 29-09-2021

Слова песни Harper Ben - Please Me Like You Want To

Перевод

Intro:
e--------------------------------------------------|
b--------------------------------------------------|(x2)
g--------------------------------------------------|
d-----4h5p4-------2h3p2----------------4h5p4-------|
a-----5-----5--3--3-----3---222-33-5---5-----5-----|

Verses:
e--------------------------------------------|
b--------------------------------------------|
g--------------------------------------------|
d-----4h5p4----------------------------------|
a-----5-----5--3---------3p2-----2-3p2-------|

e--------------------------------------------------|
b--------------------------------------------------|
g--------------------------------------------------|
d-----4h5p4-------2h3p2----------------4h5p4-------|
a-----5-----5--3--3-----3---222-33-5---5-----5-----|

Аккорды Harper Ben - Please Me Like You Want To

PLEASE ME LIKE YOU WANT TO by Ben Harper
Drop D tuning.

Intro:
e--------------------------------------------------|
b--------------------------------------------------|(x2)
g--------------------------------------------------|
d-----4h5p4-------2h3p2----------------4h5p4-------|
a-----5-----5--3--3-----3---222-33-5---5-----5-----|
D--0----------------------5----------0-------------|

Verses:
e--------------------------------------------|
b--------------------------------------------|
g--------------------------------------------|
d-----4h5p4----------------------------------|
a-----5-----5--3---------3p2-----2-3p2-------|
E--0-------------0h2-5-5-----5-5-------5-----|

Chorus:
e--------------------------------------------------|
b--------------------------------------------------|
g--------------------------------------------------|
d-----4h5p4-------2h3p2----------------4h5p4-------|
a-----5-----5--3--3-----3---222-33-5---5-----5-----|
D--0----------------------5----------0-------------|

Transcribed for your playing pleasure by Frizzle

Клип Harper Ben - Please Me Like You Want To

Текст песни Please Me Like You Want To

Тексты песен Harper Ben являются собственностью правообладателей и лейбла Virgin Records America. Контент «Please Me Like You Want To» представлен на нашем ресурсе исключительно для ознакомления и личного пользования.
All lyrics are property and copyright of their owners. All lyrics provided for educational purposes and personal use only.

Рекомендуем
Постер Harper Ben - Less
Harper Ben - Less
Поп / 29-09-2021
{views}
Постер Harper Ben - Please Bleed
Harper Ben - Please Bleed
Поп / 29-09-2021
{views}
Постер Harper Ben - Jah Work
Harper Ben - Jah Work
Поп / 29-09-2021
{views}
Постер Harper Ben - Alone
Harper Ben - Alone
Поп / 11-04-2021
{views}
Постер Harper Ben - Like A King
Harper Ben - Like A King
Поп / 29-09-2021
{views}
Комментарии (0)
Добавить
Кликните на изображение чтобы обновить код, если он неразборчив