Text-Pesni.ws » Поп » Halsey - I Hate Everybody
Постер Halsey - I Hate Everybody
0 0 00
Слушать

Текст песни I Hate Everybody
Halsey

!
  • Артист: Halsey
  • Название: I Hate Everybody
  • Лейбл: Capitol
  • Просмотров: 12
  • Качество: 320 kbps
  • Добавлено: 29-09-2021

Слова песни Halsey - I Hate Everybody

Перевод
I’m my own biggest enemy
Yeah, all my empathy’s a disaster
Feelin' somethin' like a scaly thing
Wrapped too tightly 'round my own masterI’m my own biggest enemy
Yeah, all my empathy’s a disaster
Feelin' somethin' like a scaly thing
Wrapped too tightly 'round my own master
My friends are gettin' bored of me
Sayin' I fell in love with a stranger
I don’t know what they all think of me
But in reality, I don’t even
Remember anything but thinkin' you’re the one
And I can force a future like it’s nothing
So I’ll just hate everybody
Well, then why can’t I go home without somebody?
And really, I could fall in love with anybody who don’t want me
So I just keep sayin' I hate everybody
But maybe I, maybe I don’t
I know I’ve got a tendency
To exaggerate what I’m seein'
And I know that it’s unfair of me
To make a memory out of a feelin'
It’s 'cause I notice every single thing
That’s ever happening in the moment
And I don’t know why it’s consumin' me
Because honestly, all I know is
Infatuation’s observation with a cause
But none of it is love, so while I’m waitin' for it
I’ll hate everybody
Well, then why can’t I go home without somebody?
And really, I could fall in love with anybody who don’t want me
So I just keep sayin' I hate everybody
But maybe I, maybe I don’t
If I could make you love me
Maybe you could make me love me
And if I can’t make you love me
Then I’ll just hate everybody
Everybody
Well, then why can’t I go home without somebody?
And really, I could fall in love with anybody who don’t want me
So I just keep sayin' I hate everybody
But maybe I, maybe I don’t

Аккорды Halsey - I Hate Everybody

Halsey
"I HATE EVERYBODY"

Standard tuning.


[Intro]
B Gm Cm Gsus4 Cm Gm Cm
e|----------------|----------------|----------------|----------------|
B|10--10--8---8---|6---6---6---6---|6---6---6---6---|6---6---8---8---|
G|10--10--9---9---|7---7---5---5---|7---7---7---7---|6---6---8---8---|
D|----------------|----------------|----------------|----------------|
A|----------------|----------------|----------------|----------------|
E|----------------|----------------|----------------|----------------|


[Verse 1]
B Gm
I'm my own biggest enemy
Cm Gsus4
Yeah, all my empathy's a disaster
F#
Feelin' somethin' like a scaly thing
F#m Cm/B
Wrapped too tightly 'round my own master
B Gm7/G
My friends are gettin' bored of me
Cm Gsus4
Sayin' I fell in love with a stranger
F#
I don't know what they all think of me
F#m Cm/B
But in reality, I don't even


[Pre-Chorus]
B Gm7/G Cm Gsus4
Remember anything but thinkin' you're the one
F# F#m
And I can force a future like it's nothing


[Chorus]
B
So I just hate everybody
G7 F#
Well, then why can't I Go home without somebody?
F#m B G7
And really, I could fall in love with anybody who don't want me
F# B Cm
So I just keep sayin' I hate everybody
G
But maybe I, maybe I don't


[Verse 2]
B Gm
I know I've got a tendency
Cm Gsus4
To exaggerate what I'm seein'
F#
And I know that it's unfair of me
Gm Cm
To make a memory out of a feelin'
B Gm
It's 'cause I notice every single thing
Cm Gsus4
That's ever happening in the moment
F#
And I don't know why it's consumin' me
F#m Cm/B
Because honestly, all I know is


[Pre-Chorus]
B Gm7/G Cm Gsus4
Infatuation's observation with a cost
B5 F#
But none of it is love, so while I'm waitin' for it


[Chorus]
B
So I just hate everybody
G7 F#
Well, then why can't I Go home without somebody?
F#m B G7
And really, I could fall in love with anybody who don't want me
F# B Cm
So I just keep sayin' I hate everybody
G
But maybe I, maybe I don't


[Bridge]
Cm Gmaug
If I could make you love me
B/G B#5/F
Maybe you could make me love me
B/C B
And if I can't make you love me
B
Then I'll just hate everybody


[Chorus]
B
Everybody
G7 F#
Well, then why can't I Go home without somebody?
F#m B G7
And really, I could fall in love with anybody who don't want me
F# B Cm
So I just keep sayin' I hate everybody
G
But maybe I, maybe I don't



ADDITIONAL PARTS

[Verse]
B Gm Cm Gsus4 F# F#m Cm/B
e|----------------|----------------|----------------|----------------|
B|10--10--8---8---|6---6---6---6---|6---6---6---6---|6---6---8---8---|
G|10--10--9---9---|7---7---5---5---|7---7---7---7---|6---6---8---8---|
D|----------------|----------------|------------8---|------------8---|
A|8-------7-------|5-------3-------|----------8-----|----------8-----|
E|----------------|----------------|6---------------|6---------------|
The verses are variations on this
B Gm7/G Cm Gsus4 F# F#m Cm/B basic figure. Root notes included
e|----------------|----------------|----------------|----------------| to give a sense of the bass part.
B|10--10--8---8---|6---6---6---6---|6---6---6---6---|6---6---8---8---|
G|10--10--9---9---|7---7---5---5---|7---7---7---7---|6---6---8---8---|
D|----------------|----------------|------------8---|----------8-----|
A|8-------7---0---|5-------3-------|----------8-----|------------8---|
E|----------------|------------5---|6---------------|6---------------|

[Pre-Chorus]
B Gm7/G Cm Gsus4 F# F#m
e|----------------|----------------|----------------|----------------|
B|10--10--8---8---|6---6---6---6---|6---6---6---6---|6---------------|
G|10--10--9---9---|7---7---5---5---|7---7---7---7---|6---------------| Similarly, the second Pre-Chorus
D|----------------|----------------|------------8---|----------------| is a slight variation on this.
A|8-------7-------|5-------3-------|----------8-----|----------------|
E|----------------|----------------|6---------------|6---------------|


[Bridge]
Cm Gmaug B/G B#5/F B/C B B
e|----------------|----------------|----------------|8---------------|
B|10--10--10--10--|10--10--10--10--|10--10--10--10--|10--------------|
G|10--10--10--10--|10--10--10--10--|10--10--10--10--|10--------------|
D|12--12--11--11--|10--10--9---9---|----------------|----------------|
A|----------------|----------------|10--10--8---8---|8---------------|
E|----------------|----------------|----------------|----------------|

Клип Halsey - I Hate Everybody

Текст песни I Hate Everybody

Тексты песен Halsey являются собственностью правообладателей и лейбла Capitol. Контент «I Hate Everybody» представлен на нашем ресурсе исключительно для ознакомления и личного пользования.
All lyrics are property and copyright of their owners. All lyrics provided for educational purposes and personal use only.

Рекомендуем
Постер Halsey - Killing Boys
Halsey - Killing Boys
Поп / 29-09-2021
{views}
Постер Bad Cash Quartet - Big Day Coming
Bad Cash Quartet - Big Day Coming
Поп / 4-03-2021
{views}
Постер Halsey - 3Am
Halsey - 3Am
Поп / 28-09-2021
{views}
Постер Halsey - Eastside
Halsey - Eastside
Поп / 11-04-2021
{views}
Постер MIKA - Rain
MIKA - Rain
Поп / 18-02-2021
{views}
Комментарии (0)
Добавить
Кликните на изображение чтобы обновить код, если он неразборчив