Text-Pesni.ws » Поп » Code Geass - Continued Story
Постер Code Geass - Continued Story
0 0 00
Слушать

Текст песни Continued Story
Code Geass

!
  • Артист: Code Geass
  • Название: Continued Story
  • Лейбл: Cyber Chord
  • Просмотров: 29
  • Качество: 320 kbps
  • Добавлено: 12-05-2021

Слова песни Code Geass - Continued Story

Перевод
^ ^ ^ ^


-----------------|-----------------|----------------|-----------------|
-----------------|-----------------|--0-------------|-----------------|
--0---------0----|--0---------0----|-----------2----|-----------------|
-------4---------|-------4---------|----------------|--2--------2--4--|
--2--------------|--0--------------|--0-------------|-----------------|
--2--------------|--0--------------|--2-------------|-----------------|


Q Q Q Q H Q Q Q Q Q Q
-----------------|----------------|-------0---------|-------2---------|
------------0----|-------3--------|--3---------0----|--4----4----0----|
--0--------------|--2-------------|-----------------|-------4---------|
-----------------|--4-------------|-------4---------|-----------------|
--3---------3----|--5-------------|-------2---------|-------2---------|
-------5---------|----------------|-----------------|-----------------|


---------------|--------|--0-----0-----0--2--|--4-----4----------|
--L------------|--0--4--|--------------------|-----------5--L----|
---------------|--------|-----------1--------|--------6----------|
---------------|--------|--------2-----------|-----6-------------|
---------------|--------|-----2--------------|--4----------------|
---------------|--------|--2-----------------|-------------------|


--5-----5--4--2--0--|--0--2-4-2----2--4--|--5-----5-----5--7--|
--5-----------------|--------------------|--------------5-----|
--------------------|---------2----------|-----------6--------|
--------------2-----|-----2--------------|--------7-----------|
--0-----0--4--------|--2-----------------|-----7--------------|
-----2--------------|--------------------|--7-----------------|


--4-----4-----0--4--|--2--------0--2--0--|--0----------------|
--5-----5-----------|--------------------|--------4----0--4--|
--------------------|--------------------|--------4----------|
--------2-----------|-----------4--------|-----4-------------|
-----2--------2-----|-----0--4-----------|--2----------------|
--2-----------------|--0-----------------|-------------------|


--0-----0-----0--2--|--4-----4---------|--5-----5--4--2--0--|
--4-----------0-----|-----------5------|--------------------|
--4--------1--------|--------6---------|--------------------|
--------2-----------|-----6------------|--------------2-----|
-----2--------------|--4---------------|--0-----0--4--------|
--2-----------------|------------------|-----2--------------|


--0--2h-4-2----2--4--|--5-----5-----5--7--|--4-----4-------4--|
---------------------|--------------5-----|--5-----5----5-----|
----------2----------|-----------6--------|-------------------|
-----2---------------|--------7-----------|--------2----------|
--2------------------|-----7--------------|-----2-------------|
---------------------|--7-----------------|--2----------------|


--2--------0--2--5--|--------------------|-----------------2--|
--------------------|--0--------------0--|-----------0--4-----|
--------------------|--------------------|--------------------|
--------1--4--------|-----------2--4-----|-----1--4-----------|
-----0--------------|--2-----2-----------|--2-----------------|
--0-----------------|-----4--------------|--------------------|


^
--0-------------------|-------------------|-------------------|
--2--4--2--0----------|-------------------|--0-------------2--|
--------------1-------|--------2----------|-------------2-----|
----------------4-2-4-|--2--2----------2--|--2-----4----------|
--4-----4-------------|--0----------4-----|--4--4-------------|
----------------------|-------------------|--4----------------|


---------------------|--0-------------------|-------------------|
---------------------|-----4--2-------------|-------------------|
--1--------2p-1------|-----------4--1-------|--------2----------|
----------------4----|----------------4-2-4-|--2--2----------2--|
--2-----2------------|--4-----4-------------|--0----------4-----|
-----4---------------|----------------------|-------------------|


^ ^
-------------------|--------------------|--------------------|
--0-------------2--|--------------------|--0-----------------|
-------------2-----|--------------------|--0-----0-----0-----|
--2-----4----------|--6-----6-----------|--0--0-----0-----0--|
--4--4-------------|-----6-----6-----6--|--------------------|
--4----------------|--6-----------6-----|--5-----------------|


^
--------------3-----|--------------------|------------------|
--0-----4-----4-----|--------0-----------|--0-----0---------|
--0-----4-----4-----|--0-----------0-----|--0-----0---------|
--0-----5-----------|--2-----2-----2--4--|--0--0--0---------|
-----0-----0-----0--|--2--2-----2-----5--|------------------|
--0-----0-----0-----|--2-----------------|--5-----5----5----|


--------------------|---------------------|--------------------|
--1-----1--0--------|-------0-------------|--------------------|
--2-----2-----2--0--|--0--2---2-----2-----|--0-----0-----0-----|
--2--2--2-----------|---------0--4-----4--|--2-----2-----2--2--|
--0-----0-----0-----|-----0---------------|--2--2--2--2--------|
--------------------|--0------------------|--2-----2-----------|


--------------------|--------------------|---------------------|
--0-----0-----------|--1-----1--0--------|-------0-------------|
--0-----0-----0-----|--2-----2-----2--0--|--0--2---2-----2-----|
--0--0--0--0--------|--2--2--2-----------|---------0--4-----4--|
--------------------|--0-----0--2--3--0--|-----0---------------|
--5--------------5--|--------------------|--0------------------|


^
--------------------|------------0----|--L--------------|--0-------------|
--------------0-----|-------0----0----|--L--------1--3--|----------------|
--2--------1-----1--|--1----1----1----|--L--------------|-------2--------|
--------2-----------|--2----2----2----|--L--------------|--2-------------|
-----2--------------|------------2----|--L--------------|--0-------------|
--2-----------------|--2---------2----|--L--------------|----------------|


-----------------|-----------------|---------------|-----------------|
--3---------3----|--1-----------3--|---------------|-----------------|
-------2---------|-------2---------|--2------------|--0---------0----|
-------0---------|--2--------------|--4------------|--2----4----2----|
-----------------|--0--------------|--5------------|--2--------------|
--0----4---------|-----------------|---------------|--2----2---------|


------------------|------------------|------------------|------------------|
------------------|--0---------------|------------------|--------1----0----|
--0----------0----|--0----------2----|------------------|--0--0------------|
--0----4-----0----|-------------2----|--2---------2--4--|--2---------------|
-------5----------|--4--0--4---------|--4----4----------|--3-----3---------|
--0-------0-------|------------------|------------------|------------------|


^
--5--------3--3--5--|--5--------------|-------0-----------|--------------------|
-----3--3-----------|--7---------3----|--L----0-----------|-----0--0-----0-----|
--2-----------------|--7---------2----|--L----------------|--------------------|
--0-----------------|-----------------|-------2--4-----1--|--4-----4--4--4--4--|
--0-----------------|-------0---------|-------2-----2-----|--------------------|
--------------------|--0---------0----|--L----------------|--------------------|


^
---------------|---------------|-----------------|----------------|
--4------------|--L------------|-----------------|--0-------------|
--4------------|--L------------|--0--------1--2--|--0----0--------|
--4------------|--L------------|--2--------2-----|----------------|
--2------------|--L------------|--2--------------|----------------|
---------------|---------------|-----------------|--5-------------|


--------------------|-------------------|-------------------|-----------------|
--1-----1--0--------|-------0-----------|-------------------|--0----0---------|
--------------2--0--|--0--2---2---------|--0----0----0------|--0----0---------|
--2--2--------------|---------0---------|--2----2----2------|--0----0---------|
--0-----0-----------|-----0-------------|--2----2----2------|-----------------|
--------------------|--0-----------0----|--2---------2s--4--|--5----5----5----|


--------------------|---------------------|--------------------|
--1-----1--0--------|-------0-------------|--------------------|
--2-----2-----2--0--|--0--2---2-----2-----|--0-----0-----0--2--|
--2--2--2-----------|---------0--4-----4--|--2-----2-----2-----|
--0-----------0-----|-----0---------------|--2--2--2-----2--5--|
--------------------|--0------------------|--2--------2-----4--|


-------------------|--------------------|---------------------|
--0-----0----------|--1-----1--0--------|-------0-------------|
--0-----0----------|--2-----2-----2--0--|--0--2---2-----2-----|
--0--0--0--0-------|--2--2--2-----------|---------0--4-----4--|
-------------------|--0-----0--2--3--0--|-----0---------------|
--5-----5-----5----|--------------------|--0------------------|


^
--------------------|------------0----|--L------------|-----------------|
--------------0-----|-------0----0----|--L------------|------------0----|
--2--------1-----1--|--1----1----1----|--L------------|-------1---------|
--------2-----------|--2----2----2----|--L------------|-------2---------|
-----2--------------|-----------------|---------------|-----------------|
--2-----------------|--2---------2----|--L------------|--2---------2----|


--0-------------------|-------------------|-------------------|
-----4--2--0----------|-------------------|--0-------------2--|
--------------1-------|--------2----------|-------------2-----|
----------------4-2-4-|--2--2----------2--|--4-----4----------|
--4-----4-------------|--0----------4-----|--4--4-------------|
----------------------|-------------------|--4----------------|


--------------------|--0-------------------|-------------------|
--------------------|-----4--2--0----------|-------------------|
--1-------2p-1------|--------------1-------|--------2----------|
---------------4----|----------------4-2-4-|--2--2----------2--|
--2----2------------|--4-----4-------------|--0----------4-----|
--------------------|----------------------|-------------------|


-------------------|--------------------|--0-------------------|
--0-------------2--|--------------------|-----4--2--0----------|
-----------2-------|--1-------2p-1------|--------------1-------|
--4-----4----------|---------------4----|----------------4-2-4-|
--4--4-------------|--2----2-------2----|--4-----4-------------|
--4----------------|--------------------|----------------------|


-------------------|--------------------|--------------------|
-------------------|--0--------------2--|--------------------|
--------2----------|--------------2-----|--1-------2p-1------|
--2--2----------2--|--4-----4-----------|---------------4----|
--0----------4-----|--4--4-----0--4-----|--2----2------------|
-------------------|--4-----------------|--------------------|


--0-------------------|-------------------|-------------------|
-----4--2--0----------|-------------------|--0-------------2--|
--------------1-------|--------2----------|-------------2-----|
----------------4-2-4-|--2--2----------2--|--4-----4----------|
--4-----4-------------|--0----------4-----|--4--4-------------|
----------------------|-------------------|--4----------------|


--------------------|--0-------------------|-------------------|
--------------------|-----4--2--0----------|-------------------|
--1-------2p-1------|--------------1-------|--------2----------|
---------------4----|----------------4-2-4-|--2--2----------2--|
--2----2-------2----|--4-----4-------------|--0----------4-----|
--------------------|----------------------|-------------------|


-------------------|--------------------|--0-------------------|
--0-------------2--|--------------------|-----4--2--0----------|
-------------2-----|--1-------2p-1------|--------------1-------|
--4-----4----------|---------------4----|----------------4-2-4-|
--4--4-------------|--2----2------------|--4-----4-------------|
--4----------------|--------------------|----------------------|


-------------------|-------------------|--------------------|
-------------------|--0-------------2--|--------------------|
--------2----------|-------------2-----|--1-------2p-1------|
--2--2----------2--|--4-----4----------|---------------4----|
--0----------4-----|--4--4-------------|--2----2------------|
-------------------|--4----------------|--------------------|


--0-------------------|-------------------|-------------------|
-----4--2--0----------|-------------------|--0-------------2--|
--------------1-------|--------2----------|-------------2-----|
----------------4-2-4-|--2--2----------2--|--4-----4----------|
--4-------------------|--0----------4-----|--4--4-------------|
----------------------|-------------------|--4----------------|


--------------------|--0-------------------|-------------------|
--------------------|-----4--2--0----------|-------------------|
--1-------2p-1------|--------------1-------|--------2----------|
--1------------4----|----------------4-2-4-|--2--2----------2--|
--2----2------------|--4-----4-------------|--0----------4-----|
--------------------|----------------------|-------------------|


--------------------|--------------------|---------------|--0-----------------|
--0--------------2--|--------------------|---------------|--0-----------------|
-----------2--2-----|--1-------2p-1------|---------------|--1--------1--------|
--4-----4-----------|--2------------4----|--4------------|--------2--------2--|
--4--4--------------|--2----2------------|---------------|-----2--------2-----|
--4-----------------|--------------------|---------------|--2-----------------|


NH NH
--------------------|--------0--------7--|--12--0--------7--12--|
-----------------0--|-----0-----7--9-----|-----------7--9-----------|
--------------1-----|--------------------|--------------------------|
--------2--4--------|--------------------|--------------------------|
-----2--------------|--7-----------------|--------------------------|
--2-----------------|--------------------|--------------------------|


NH ^ NH
H. H. Q. Q. H.
--7------------|---------------|--0------12------|--L------------||
-----------------|--0------------|--0----------------|---------------||
-----------------|--1------------|--1----------------|---------------||
-----------------|--2------------|--2----------------|---------------||
-----------------|--2------------|--2----------------|---------------||
-----------------|---------------|--2----------------|---------------||




---------------
W - whole
H - half
Q - quarter
S - 16th
T - 32nd
X - 64th
. - note dotted
|-n-| - n-tuplets


Tablature Legend
----------------
L - tied note
x - dead note
g - grace note
(n) - ghost note
> - accentuded note
NH - natural harmonic
TH - tapped harmonic
SH - semi harmonic
PH - pitch harmonic
h - hammer on
p - pull off
b - bend
br - bendRelease

/ - tremolo bar dip

- tremolo bar dive
-/n - tremolo bar Release up
/n - tremolo bar inverted dip
/n - tremolo bar return
-
- tremolo bar Release down
S - shift slide
s - legato slide
/ - slide into from below or out of upwards
- slide into from above or out of downwards
~ - vibrato
W - wide vibrato
tr - trill
TP - tremolo picking
T - tapping
S - slap
P - pop
< - fade in
^ - brush up
v - brush down

Аккорды Code Geass - Continued Story

^ ^ ^ ^
E E H. Q Q Q H E E H.
E||--------|--0------------|-----------------|-----------------|---------------|
B||--1--3--|---------------|--3---------3----|--1--------L--3--|---------------|
G||--------|---------------|-------2---------|-----------------|--2------------|
D||--------|--2------------|--4--------------|--2--------L-----|--4------------|
A||--------|--0------------|--0--------------|--0--------L-----|--0------------|
D||--------|---------------|--0--------------|-----------------|--0------------|


Q Q Q Q Q Q H Q H E E
-----------------|-----------------|----------------|-----------------|
-----------------|-----------------|--0-------------|-----------------|
--0---------0----|--0---------0----|-----------2----|-----------------|
-------4---------|-------4---------|----------------|--2--------2--4--|
--2--------------|--0--------------|--0-------------|-----------------|
--2--------------|--0--------------|--2-------------|-----------------|


Q Q Q Q H Q Q Q Q Q Q
-----------------|----------------|-------0---------|-------2---------|
------------0----|-------3--------|--3---------0----|--4----4----0----|
--0--------------|--2-------------|-----------------|-------4---------|
-----------------|--4-------------|-------4---------|-----------------|
--3---------3----|--5-------------|-------2---------|-------2---------|
-------5---------|----------------|-----------------|-----------------|


H. E E E E E E E E E E E E Q
---------------|--------|--0-----0-----0--2--|--4-----4----------|
--L------------|--0--4--|--------------------|-----------5--L----|
---------------|--------|-----------1--------|--------6----------|
---------------|--------|--------2-----------|-----6-------------|
---------------|--------|-----2--------------|--4----------------|
---------------|--------|--2-----------------|-------------------|


E E E E E E E S S Q E E E E E E E E
--5-----5--4--2--0--|--0--2-4-2----2--4--|--5-----5-----5--7--|
--5-----------------|--------------------|--------------5-----|
--------------------|---------2----------|-----------6--------|
--------------2-----|-----2--------------|--------7-----------|
--0-----0--4--------|--2-----------------|-----7--------------|
-----2--------------|--------------------|--7-----------------|


E E E E E E E E E E E E E E Q E E
--4-----4-----0--4--|--2--------0--2--0--|--0----------------|
--5-----5-----------|--------------------|--------4----0--4--|
--------------------|--------------------|--------4----------|
--------2-----------|-----------4--------|-----4-------------|
-----2--------2-----|-----0--4-----------|--2----------------|
--2-----------------|--0-----------------|-------------------|


E E E E E E E E E Q. E E E E E E
--0-----0-----0--2--|--4-----4---------|--5-----5--4--2--0--|
--4-----------0-----|-----------5------|--------------------|
--4--------1--------|--------6---------|--------------------|
--------2-----------|-----6------------|--------------2-----|
-----2--------------|--4---------------|--0-----0--4--------|
--2-----------------|------------------|-----2--------------|


E S S Q E E E E E E E E E E Q E E
--0--2h-4-2----2--4--|--5-----5-----5--7--|--4-----4-------4--|
---------------------|--------------5-----|--5-----5----5-----|
----------2----------|-----------6--------|-------------------|
-----2---------------|--------7-----------|--------2----------|
--2------------------|-----7--------------|-----2-------------|
---------------------|--7-----------------|--2----------------|


E E E E E E E E E E E E E E E E E E
--2--------0--2--5--|--------------------|-----------------2--|
--------------------|--0--------------0--|-----------0--4-----|
--------------------|--------------------|--------------------|
--------1--4--------|-----------2--4-----|-----1--4-----------|
-----0--------------|--2-----2-----------|--2-----------------|
--0-----------------|-----4--------------|--------------------|


^
E E E E S S S S E E Q E E E E Q E E
--0-------------------|-------------------|-------------------|
--2--4--2--0----------|-------------------|--0-------------2--|
--------------1-------|--------2----------|-------------2-----|
----------------4-2-4-|--2--2----------2--|--2-----4----------|
--4-----4-------------|--0----------4-----|--4--4-------------|
----------------------|-------------------|--4----------------|


E E E S S Q E E E E S S S S E E Q E E
---------------------|--0-------------------|-------------------|
---------------------|-----4--2-------------|-------------------|
--1--------2p-1------|-----------4--1-------|--------2----------|
----------------4----|----------------4-2-4-|--2--2----------2--|
--2-----2------------|--4-----4-------------|--0----------4-----|
-----4---------------|----------------------|-------------------|


^ ^
E E Q E E E E E E E E E E E E E E
-------------------|--------------------|--------------------|
--0-------------2--|--------------------|--0-----------------|
-------------2-----|--------------------|--0-----0-----0-----|
--2-----4----------|--6-----6-----------|--0--0-----0-----0--|
--4--4-------------|-----6-----6-----6--|--------------------|
--4----------------|--6-----------6-----|--5-----------------|


^
E E E E E E E E E E E E E E Q Q
--------------3-----|--------------------|------------------|
--0-----4-----4-----|--------0-----------|--0-----0---------|
--0-----4-----4-----|--0-----------0-----|--0-----0---------|
--0-----5-----------|--2-----2-----2--4--|--0--0--0---------|
-----0-----0-----0--|--2--2-----2-----5--|------------------|
--0-----0-----0-----|--2-----------------|--5-----5----5----|


E E E E E E E S S E E E E E E E E E E
--------------------|---------------------|--------------------|
--1-----1--0--------|-------0-------------|--------------------|
--2-----2-----2--0--|--0--2---2-----2-----|--0-----0-----0-----|
--2--2--2-----------|---------0--4-----4--|--2-----2-----2--2--|
--0-----0-----0-----|-----0---------------|--2--2--2--2--------|
--------------------|--0------------------|--2-----2-----------|


E E E E E E E E E E E E E S S E E E E
--------------------|--------------------|---------------------|
--0-----0-----------|--1-----1--0--------|-------0-------------|
--0-----0-----0-----|--2-----2-----2--0--|--0--2---2-----2-----|
--0--0--0--0--------|--2--2--2-----------|---------0--4-----4--|
--------------------|--0-----0--2--3--0--|-----0---------------|
--5--------------5--|--------------------|--0------------------|


^
E E E E E E Q Q Q H E E Q H
--------------------|------------0----|--L--------------|--0-------------|
--------------0-----|-------0----0----|--L--------1--3--|----------------|
--2--------1-----1--|--1----1----1----|--L--------------|-------2--------|
--------2-----------|--2----2----2----|--L--------------|--2-------------|
-----2--------------|------------2----|--L--------------|--0-------------|
--2-----------------|--2---------2----|--L--------------|----------------|


Q Q Q Q Q. E H. Q Q Q
-----------------|-----------------|---------------|-----------------|
--3---------3----|--1-----------3--|---------------|-----------------|
-------2---------|-------2---------|--2------------|--0---------0----|
-------0---------|--2--------------|--4------------|--2----4----2----|
-----------------|--0--------------|--5------------|--2--------------|
--0----4---------|-----------------|---------------|--2----2---------|


Q E E Q E E Q Q Q Q E E E E Q Q
------------------|------------------|------------------|------------------|
------------------|--0---------------|------------------|--------1----0----|
--0----------0----|--0----------2----|------------------|--0--0------------|
--0----4-----0----|-------------2----|--2---------2--4--|--2---------------|
-------5----------|--4--0--4---------|--4----4----------|--3-----3---------|
--0-------0-------|------------------|------------------|------------------|


^
E E E E E E Q Q Q Q E E E E E E E E E E
--5--------3--3--5--|--5--------------|-------0-----------|--------------------|
-----3--3-----------|--7---------3----|--L----0-----------|-----0--0-----0-----|
--2-----------------|--7---------2----|--L----------------|--------------------|
--0-----------------|-----------------|-------2--4-----1--|--4-----4--4--4--4--|
--0-----------------|-------0---------|-------2-----2-----|--------------------|
--------------------|--0---------0----|--L----------------|--------------------|


^
H. H. H E E Q H
---------------|---------------|-----------------|----------------|
--4------------|--L------------|-----------------|--0-------------|
--4------------|--L------------|--0--------1--2--|--0----0--------|
--4------------|--L------------|--2--------2-----|----------------|
--2------------|--L------------|--2--------------|----------------|
---------------|---------------|-----------------|--5-------------|


E E E E E E E S S Q Q Q Q E E Q Q Q
--------------------|-------------------|-------------------|-----------------|
--1-----1--0--------|-------0-----------|-------------------|--0----0---------|
--------------2--0--|--0--2---2---------|--0----0----0------|--0----0---------|
--2--2--------------|---------0---------|--2----2----2------|--0----0---------|
--0-----0-----------|-----0-------------|--2----2----2------|-----------------|
--------------------|--0-----------0----|--2---------2s--4--|--5----5----5----|


E E E E E E E S S E E E E E E E E E E
--------------------|---------------------|--------------------|
--1-----1--0--------|-------0-------------|--------------------|
--2-----2-----2--0--|--0--2---2-----2-----|--0-----0-----0--2--|
--2--2--2-----------|---------0--4-----4--|--2-----2-----2-----|
--0-----------0-----|-----0---------------|--2--2--2-----2--5--|
--------------------|--0------------------|--2--------2-----4--|


E E E E Q E E E E E E E S S E E E E
-------------------|--------------------|---------------------|
--0-----0----------|--1-----1--0--------|-------0-------------|
--0-----0----------|--2-----2-----2--0--|--0--2---2-----2-----|
--0--0--0--0-------|--2--2--2-----------|---------0--4-----4--|
-------------------|--0-----0--2--3--0--|-----0---------------|
--5-----5-----5----|--------------------|--0------------------|


^
E E E E E E Q Q Q H. Q Q Q
--------------------|------------0----|--L------------|-----------------|
--------------0-----|-------0----0----|--L------------|------------0----|
--2--------1-----1--|--1----1----1----|--L------------|-------1---------|
--------2-----------|--2----2----2----|--L------------|-------2---------|
-----2--------------|-----------------|---------------|-----------------|
--2-----------------|--2---------2----|--L------------|--2---------2----|


E E E E S S S S E E Q E E E E Q E E
--0-------------------|-------------------|-------------------|
-----4--2--0----------|-------------------|--0-------------2--|
--------------1-------|--------2----------|-------------2-----|
----------------4-2-4-|--2--2----------2--|--4-----4----------|
--4-----4-------------|--0----------4-----|--4--4-------------|
----------------------|-------------------|--4----------------|


Q E S S Q E E E E S S S S E E Q E E
--------------------|--0-------------------|-------------------|
--------------------|-----4--2--0----------|-------------------|
--1-------2p-1------|--------------1-------|--------2----------|
---------------4----|----------------4-2-4-|--2--2----------2--|
--2----2------------|--4-----4-------------|--0----------4-----|
--------------------|----------------------|-------------------|


E E E Q E Q E S S Q E E E E S S S S
-------------------|--------------------|--0-------------------|
--0-------------2--|--------------------|-----4--2--0----------|
-----------2-------|--1-------2p-1------|--------------1-------|
--4-----4----------|---------------4----|----------------4-2-4-|
--4--4-------------|--2----2-------2----|--4-----4-------------|
--4----------------|--------------------|----------------------|


E E Q E E E E E E E E Q E S S Q
-------------------|--------------------|--------------------|
-------------------|--0--------------2--|--------------------|
--------2----------|--------------2-----|--1-------2p-1------|
--2--2----------2--|--4-----4-----------|---------------4----|
--0----------4-----|--4--4-----0--4-----|--2----2------------|
-------------------|--4-----------------|--------------------|


E E E E S S S S E E Q E E E E Q E E
--0-------------------|-------------------|-------------------|
-----4--2--0----------|-------------------|--0-------------2--|
--------------1-------|--------2----------|-------------2-----|
----------------4-2-4-|--2--2----------2--|--4-----4----------|
--4-----4-------------|--0----------4-----|--4--4-------------|
----------------------|-------------------|--4----------------|


Q E S S Q E E E E S S S S E E Q E E
--------------------|--0-------------------|-------------------|
--------------------|-----4--2--0----------|-------------------|
--1-------2p-1------|--------------1-------|--------2----------|
---------------4----|----------------4-2-4-|--2--2----------2--|
--2----2-------2----|--4-----4-------------|--0----------4-----|
--------------------|----------------------|-------------------|


E E Q E E Q E S S Q E E E E S S S S
-------------------|--------------------|--0-------------------|
--0-------------2--|--------------------|-----4--2--0----------|
-------------2-----|--1-------2p-1------|--------------1-------|
--4-----4----------|---------------4----|----------------4-2-4-|
--4--4-------------|--2----2------------|--4-----4-------------|
--4----------------|--------------------|----------------------|


E E Q E E E E Q E E Q E S S Q
-------------------|-------------------|--------------------|
-------------------|--0-------------2--|--------------------|
--------2----------|-------------2-----|--1-------2p-1------|
--2--2----------2--|--4-----4----------|---------------4----|
--0----------4-----|--4--4-------------|--2----2------------|
-------------------|--4----------------|--------------------|


E E E E S S S S E E Q E E E E Q E E
--0-------------------|-------------------|-------------------|
-----4--2--0----------|-------------------|--0-------------2--|
--------------1-------|--------2----------|-------------2-----|
----------------4-2-4-|--2--2----------2--|--4-----4----------|
--4-------------------|--0----------4-----|--4--4-------------|
----------------------|-------------------|--4----------------|


Q E S S Q E E E E S S S S E E Q E E
--------------------|--0-------------------|-------------------|
--------------------|-----4--2--0----------|-------------------|
--1-------2p-1------|--------------1-------|--------2----------|
--1------------4----|----------------4-2-4-|--2--2----------2--|
--2----2------------|--4-----4-------------|--0----------4-----|
--------------------|----------------------|-------------------|


E E E E E E Q E S S Q H. E E E E E E
--------------------|--------------------|---------------|--0-----------------|
--0--------------2--|--------------------|---------------|--0-----------------|
-----------2--2-----|--1-------2p-1------|---------------|--1--------1--------|
--4-----4-----------|--2------------4----|--4------------|--------2--------2--|
--4--4--------------|--2----2------------|---------------|-----2--------2-----|
--4-----------------|--------------------|---------------|--2-----------------|


NH NH
E E E E E E E E E E E E E E E E E E
--------------------|--------0--------7--|--12--0--------7--12--|
-----------------0--|-----0-----7--9-----|-----------7--9-----------|
--------------1-----|--------------------|--------------------------|
--------2--4--------|--------------------|--------------------------|
-----2--------------|--7-----------------|--------------------------|
--2-----------------|--------------------|--------------------------|


NH ^ NH
H. H. Q. Q. H.
--7------------|---------------|--0------12------|--L------------||
-----------------|--0------------|--0----------------|---------------||
-----------------|--1------------|--1----------------|---------------||
-----------------|--2------------|--2----------------|---------------||
-----------------|--2------------|--2----------------|---------------||
-----------------|---------------|--2----------------|---------------||




Duration Legend
---------------
W - whole
H - half
Q - quarter
E - 8th
S - 16th
T - 32nd
X - 64th
. - note dotted
|-n-| - n-tuplets


Tablature Legend
----------------
L - tied note
x - dead note
g - grace note
(n) - ghost note
> - accentuded note
NH - natural harmonic
AH - artificial harmonic
TH - tapped harmonic
SH - semi harmonic
PH - pitch harmonic
h - hammer on
p - pull off
b - bend
br - bendRelease
pb - preBend
pbr - preBendRelease
brb - bendReleaseBend

/ - tremolo bar dip

- tremolo bar dive
-/n - tremolo bar Release up
/n - tremolo bar inverted dip
/n - tremolo bar return
-
- tremolo bar Release down
S - shift slide
s - legato slide
/ - slide into from below or out of upwards
- slide into from above or out of downwards
~ - vibrato
W - wide vibrato
tr - trill
TP - tremolo picking
T - tapping
S - slap
P - pop
< - fade in
^ - brush up
v - brush down

Клип Code Geass - Continued Story

Текст песни Continued Story

Тексты песен Code Geass являются собственностью правообладателей и лейбла Cyber Chord. Контент «Continued Story» представлен на нашем ресурсе исключительно для ознакомления и личного пользования.
All lyrics are property and copyright of their owners. All lyrics provided for educational purposes and personal use only.

Рекомендуем
Постер Bbmak - Always
Bbmak - Always
Поп / 26-02-2021
{views}
Постер Анивар - Love story отсутствует
Анивар - Love story
Русская поп-музыка / 14-01-2021
{views}
Постер Vz - LOVE STORY
Vz - LOVE STORY
Русская поп-музыка / 5-01-2021
{views}
Постер Taylor Swift - The Story Of Us
Taylor Swift - The Story Of Us
Поп / 3-02-2021
{views}
Постер Flybanger - Suckerpunch
Flybanger - Suckerpunch
Поп / 7-04-2021
{views}
Комментарии (0)
Добавить
Кликните на изображение чтобы обновить код, если он неразборчив