Text-Pesni.ws » Музыка » Русская авторская песня » Леонид Сергеев - Народная
Постер Леонид Сергеев - Народная
0 0 00
Слушать

Текст песни Народная
Леонид Сергеев

!
  • Артист: Леонид Сергеев
  • Название: Народная
  • Лейбл: ООО «Музыкальное издательство «Рэй Рекордс»
  • Просмотров: 30
  • Качество: 320 kbps
  • Добавлено: 5-05-2021

Слова песни Леонид Сергеев - Народная

Перевод
intro:

Гитара
dm
1|----------5---------7-----7----- |
2|--------6---6---6-----6-----6--- |
3|------7-------7---5-----5-----5- |
4|--0----------------------------- |
5--------------------- |
6--------------------- |

7-----8-----7------5---------
--6--------------------------
---------5-----5-------------
-----------------------------
-----------------------------
-----------------------------
am
1|----------0-------------------0---------
2|--------1---1---1-----------1---1---1---
3|------2-------2---2-------2-------2---2-
4-----------------------------
5|--0-------------------0-----------------
6-----------------------------



Вокал

(под вышеуказанный аккомпанимент)

Жили- были, не тужили,
То ли сказка, то ли быль.
Ветры буйны закружили,
Поднялась густая пыль

Запорошило глаза,
Кто тут прав, кто виноват.
Налетевшие казаки
Сходу грохнули в напад.
----------------
И согнали всех на площадь
К атаманскому крыльцу
С тех, кто выглядел попроще
Сбили плетками пыльцу,
---------------
-Вы,-сказал нам атаман,-
Ох, намаялись в пути,
Слава Богу, окаянных
Я злодеев победил.

Вы мне дети, я вам отче.
Как ведется на Руси,
Я тому, кто был попроще,
-------------------------
И продолжил: "Надо Крестный
Непременно сделать ход,
Чтоб к обеду, хоть ты тресни,
А срубили прочный плот.

Чтобы мы спокойно жили
И во сне, и наяву,
Как бы волны да не бурлили,
Мы б держались на плаву".
_____
(как в начале)

Он закончил, засвистали
Плетки дюжих удальцов.
Кто попроще заурали,
Вспомнив всех святых отцов.

Поплевали на мозоли
И взялись за тороры
Зубы стиснули до боли
И пошли ломать дворы
_________
Избы, изгороди, клети,
Не жалей, давай ишо!
Нам бы только жить на свете:
На плаву и хорошо.

Долго-ль, коротко-ль корпели,
Но готов огромный плот
Не страшны любые мели,
Слава Богу, и вперед!

Только Отче,
А куда же
Мы с тобой поплывем?

Вместо волн
Одни овражья,
Вместо сини
Чернозем!

Заблажили, заорали,
Поднялась густая пыль,
Все глаза позакрывали,
То ли сказка, то ли быль.

А когда из серой тучи
Руки вскинеулись к венцу,
С тех, кто выглядел...получше,
Сбили саблями пыльцу.

Аккорды Леонид Сергеев - Народная

intro:

Гитара
dm
1|----------5---------7-----7----- |
2|--------6---6---6-----6-----6--- |
3|------7-------7---5-----5-----5- |
4|--0----------------------------- |
5--------------------- |
6--------------------- |

7-----8-----7------5---------
--6--------------------------
---------5-----5-------------
-----------------------------
-----------------------------
-----------------------------
am
1|----------0-------------------0---------
2|--------1---1---1-----------1---1---1---
3|------2-------2---2-------2-------2---2-
4-----------------------------
5|--0-------------------0-----------------
6-----------------------------



Вокал

(под вышеуказанный аккомпанимент)

Dm
Жили- были, не тужили,
Am
То ли сказка, то ли быль.
Ветры буйны закружили,
Поднялась густая пыль

A#
Запорошило глаза,
F
Кто тут прав, кто виноват.
Dm Am
Налетевшие казаки
E Am
Сходу грохнули в напад.
----------------
Dm
И согнали всех на площадь
Am x y xy Am
К атаманскому крыльцу
С тех, кто выглядел попроще
Сбили плетками пыльцу,
---------------
A#
-Вы,-сказал нам атаман,-
F
Ох, намаялись в пути,
dm Am
Слава Богу, окаянных
E Am
Я злодеев победил.

Вы мне дети, я вам отче.
Как ведется на Руси,
Я тому, кто был попроще,
Плеткой лоб перекретил. x y xy Am
-------------------------
И продолжил: "Надо Крестный
Непременно сделать ход,
Чтоб к обеду, хоть ты тресни,
А срубили прочный плот.

Чтобы мы спокойно жили
И во сне, и наяву,
Как бы волны да не бурлили,
Мы б держались на плаву".
_____
(как в начале)

Он закончил, засвистали
Плетки дюжих удальцов.
Кто попроще заурали,
Вспомнив всех святых отцов.

Поплевали на мозоли
И взялись за тороры
Зубы стиснули до боли
И пошли ломать дворы
_________
Избы, изгороди, клети,
Не жалей, давай ишо!
Нам бы только жить на свете:
На плаву и хорошо.

Долго-ль, коротко-ль корпели,
Но готов огромный плот
Не страшны любые мели,
Слава Богу, и вперед!

Только Отче,
А куда же
Мы с тобой поплывем?

Вместо волн
Одни овражья,
Вместо сини
Чернозем!

Заблажили, заорали,
Поднялась густая пыль,
Все глаза позакрывали,
То ли сказка, то ли быль.

А когда из серой тучи
Руки вскинеулись к венцу,
С тех, кто выглядел...получше,
Сбили саблями пыльцу.

Клип Леонид Сергеев - Народная

Текст песни Народная

Тексты песен Леонид Сергеев являются собственностью правообладателей и лейбла ООО «Музыкальное издательство «Рэй Рекордс». Контент «Народная» представлен на нашем ресурсе исключительно для ознакомления и личного пользования.
All lyrics are property and copyright of their owners. All lyrics provided for educational purposes and personal use only.

Рекомендуем
Постер Леонид Сергеев - Трёхколёсный со звонком...
Леонид Сергеев - Трёхколёсный со звонком...
Русская авторская песня / 5-04-2021
{views}
Постер Леонид Сергеев - ШЕСТЬ ШАГОВ
Леонид Сергеев - ШЕСТЬ ШАГОВ
Русская авторская песня / 5-04-2021
{views}
Постер Леонид Сергеев - Капли бьют
Леонид Сергеев - Капли бьют
Русская авторская песня / 15-04-2021
{views}
Постер Леонид Сергеев - Для того запоминаем лица...
Леонид Сергеев - Для того запоминаем лица...
Русская авторская песня / 15-04-2021
{views}
Постер Леонид Сергеев - Гадание на дохлых кошках
Леонид Сергеев - Гадание на дохлых кошках
Русская авторская песня / 5-05-2021
{views}
Комментарии (0)
Добавить
Кликните на изображение чтобы обновить код, если он неразборчив