Постер Gessle Per - Name You Beautiful
0 0 00
Слушать

Текст песни Name You Beautiful
Gessle Per

!
  • Артист: Gessle Per
  • Название: Name You Beautiful
  • Лейбл: Elevator EntertainmentBMG Rights Management
  • Просмотров: 9
  • Качество: 320 kbps
  • Добавлено: 27-09-2021

Слова песни Gessle Per - Name You Beautiful

Перевод

1|------9/7------9/7--------10/9-------10/9-------------------------------------9/7--|
2|-10-------10--------12----------12---------15----15p14--15----15p14--15--10--------|
3|-----9--------9----------11---------11----------14--------14---------------9-------|

1|--17-----21-19--17----21--19-17---19---22-21-22----17----21-19-17---|
2|-----17-----------17------------19-------------19-17------------17--|

1 Verse
Oh,i had a sence of doubt
I thought i was falling out
Made you the dynamo

Hey, it's got to be simple


What you're doin' to me
What you're doin' to me
I have to spell incredible
I want to name you beautiful

Pretty hard to believe
It's pretty hard to believe
You make the worry minimal

2 Verse

Without a master plan
You're bound for the garbage can
Oh, it's a hard nut to crack
On an ordinary day
You suddenly came my way

Hey,you'd better believe it


1|-------7/5-5-------7/5-5--5---8-7--5----8-7--8--8--7----7/5--|
2|--8------------8------------5--------5---------8-----8-------|
3|----7------------7------------------------------------7------|

1|-----7/5------7/5--5---8-7--5--8-7--8--8--7----------7/5-----|
2|-8--------8----------5-------5-------8-----8----8------------|
3|---9--------9--------------------------------7-----------9---|


What you're doin' to me
What you're doin' to me
I have to spell impeccable
I want to name you beautiful

Pretty hard to believe
I'm gettin' stuck on repeat
You make the mini minimal


1|--6--10/8---6---10/8--8--11/10--8---11/10---11---11-10-11-8--6--10/8-|
2|---6---------6-------8------------8------------11-------------6------|

1|--------10/9--------10/9---8--11-10--8--11-10-11--11--10--11----6----10/8---|
2|--11----------11----------8-----------8---------11------------11---6--------|
3|-----12----------12---------------------------------------------------------|

Аккорды Gessle Per - Name You Beautiful

Intro-Interlude A A Bm D | A F#m Bm D

1|------9/7------9/7--------10/9-------10/9-------------------------------------9/7--|
2|-10-------10--------12----------12---------15----15p14--15----15p14--15--10--------|
3|-----9--------9----------11---------11----------14--------14---------------9-------|

1|--17-----21-19--17----21--19-17---19---22-21-22----17----21-19-17---|
2|-----17-----------17------------19-------------19-17------------17--|

1 Verse
A
Oh,i had a sence of doubt
I thought i was falling out
D
God, it felt so alone
But the right move in the dark
And a Saturday in the park
Made you the dynamo

Pre-Chorus
D E
Hey, it's got to be simple
F#m D
A broken heart can never keep time

Chorus - Helena Josefsson

A
What you're doin' to me
Bm
What you're doin' to me
D
I have to spell incredible
A
I want to name you beautiful

F#m
Pretty hard to believe
Bm
It's pretty hard to believe
D
You make the worry minimal
A
Got to name you beautiful

2 Verse

Without a master plan
You're bound for the garbage can
Oh, it's a hard nut to crack
On an ordinary day
You suddenly came my way
And i'm never looking back

Pre-Chorus
Hey,you'd better believe it
A broken heart can never keep time

Interlude G Am C G| Em Am C G

1|-------7/5-5-------7/5-5--5---8-7--5----8-7--8--8--7----7/5--|
2|--8------------8------------5--------5---------8-----8-------|
3|----7------------7------------------------------------7------|

1|-----7/5------7/5--5---8-7--5--8-7--8--8--7----------7/5-----|
2|-8--------8----------5-------5-------8-----8----8------------|
3|---9--------9--------------------------------7-----------9---|

Modulation A#

A#
What you're doin' to me
Cm
What you're doin' to me
D#
I have to spell impeccable
A#
I want to name you beautiful

Gm
Pretty hard to believe
Cm
I'm gettin' stuck on repeat
D#
You make the mini minimal
A#
Got to name you beautiful

Outro A# Cm D# A#| Gm Cm D# A#

1|--6--10/8---6---10/8--8--11/10--8---11/10---11---11-10-11-8--6--10/8-|
2|---6---------6-------8------------8------------11-------------6------|

1|--------10/9--------10/9---8--11-10--8--11-10-11--11--10--11----6----10/8---|
2|--11----------11----------8-----------8---------11------------11---6--------|
3|-----12----------12---------------------------------------------------------|

Клип Gessle Per - Name You Beautiful

Текст песни Name You Beautiful

Тексты песен Gessle Per являются собственностью правообладателей и лейбла Elevator EntertainmentBMG Rights Management. Контент «Name You Beautiful» представлен на нашем ресурсе исключительно для ознакомления и личного пользования.
All lyrics are property and copyright of their owners. All lyrics provided for educational purposes and personal use only.

Рекомендуем
Постер Passenger - Beautiful Birds
Passenger - Beautiful Birds
Иностранная авторская песня / 22-02-2021
{views}
Постер Paloma Faith - Do You Want The Truth Or Something Beautiful
Paloma Faith - Do You Want The Truth Or Something Beautiful
Иностранная авторская песня / 23-02-2021
{views}
Постер Tim McMorris - A Beautiful Life
Tim McMorris - A Beautiful Life
Иностранная авторская песня / 1-02-2021
{views}
Постер Bob Dylan - I And I
Bob Dylan - I And I
Иностранная авторская песня / 18-04-2021
{views}
Постер George Ezra - Budapest
George Ezra - Budapest
Иностранная авторская песня / 27-09-2021
{views}
Комментарии (0)
Добавить
Кликните на изображение чтобы обновить код, если он неразборчив