Text-Pesni.ws » Панк » Lawrence Arms - Chicago Is Burning
Постер Lawrence Arms - Chicago Is Burning
0 0 00
Слушать

Текст песни Chicago Is Burning
Lawrence Arms

!
  • Артист: Lawrence Arms
  • Название: Chicago Is Burning
  • Лейбл: Asian Man
  • Просмотров: 10
  • Качество: 320 kbps
  • Добавлено: 21-11-2021

Слова песни Lawrence Arms - Chicago Is Burning

Перевод

Intro Play Twice
e|------------------------------------------------------------------|

e|------------------------------------------------------------------|

have a guitar play the clean part and one play the distorted)

e|-2~~~~~4~~~------------------2~~~~~----------------------|
|P.m.| | P.m.|
Part 2 play twice
e|--------------------------------------------------------5~--5~--|

solo
(hard to tab double digits, so rhythm may look off in places)
x2
e|---------------------------------|------------------------------->

e|---------------------------------|--------------------------------->

>-------------------------------------------------
>-------------------------------------------------
>---------6-66-66-6-6-666-9-9-999-----------------
>-9-9-999-6-66-66-6-6-666-9-9-999-9-9-999-7-7-777-
>-9-9-999-4-44-44-4-4-444-7-7-777-9-9-999-7-7-777-
>-7-7-777-------------------------7-7-777-5-5-555-

>-------------------------------------------------
>-------------------------------------------------
>-9-9-999-9-99-99-9-9-88--4-4-444-4-6-666-4~444444
>-x-x-xxx-x-xx-xx-x-x-xx--x-x-xxx-x-x-xxx-x-xxxxxx
>-7-7-777-7-77-77-7-7-66--2-2-222-2-4-444-2~222222
>-------------------------------------------------

Part 4 (winter beats the summer)
e|-------------------------------|

part 5 (like the burning summer evenings)
x3
e|-------------------|----------------
|__P.m_|

part 6 (lighten on distortion a bit)
(this town is choking) ()-unsure about note
e|--------------------------

part 7 (clean) (nevermore, nevertheless)
e|--------------------------------------------------------|


email me Kody (pathetic303@hotmail.com) to talk about punk, or send death threats...whatever

key: / slide
slide
P.m. - palm mute
~ ring
x muted note
P pull-off

Аккорды Lawrence Arms - Chicago Is Burning

Standard Tuning (e,B,G,D,A,E)

Intro Play Twice
Gtr.1(Distorted)
e|------------------------------------------------------------------|
B|------------------------------------------------------------------|
G|-6-6-666-9-9-999---------6~66-6-6-6-6-666-9-9-999-----------------|
D|-6-6-666-9-9-999-9-9-999-6~66-6-6-6-6-666-9-9-999-9-9-999-7~77-7-7|
A|-4-4-444-7-7-777-9-9-999-4~44-4-4-4-4-444-7-7-777-9-9-999-7~77-7-7|
E|-----------------7-7-777--------------------------7-7-777-5~55-5-5|

Gtr.2(Distorted)
e|------------------------------------------------------------------|
B|----------------------10-----10---------------------------------|
G|-6-6-666-9-9-999-9/10----10-------6-6-666-/4---2--1----1----------|
D|-6-6-666-9-9-999-----------12-----6-6-666-----------4-----2~~~~---|
A|-4-4-444-7-7-777------------------4-4-444-------------------------|
E|------------------------------------------------------------------|

Part 1(you only reall need a rhythm Gtr. for the intro and solo or you could
have a guitar play the clean part and one play the distorted)

Gtr. 2
e|-2~~~~~4~~~------------------2~~~~~----------------------|
B|-3~~~~~4~~~------------------3~~~~~5P4~------------------|
G|-4~~~~~4~~~------------------4~~~~~----4~----------------|
D|-4~~~~~----9-9-999-7~7-7-77--4~~~~~------9------7--------|
A|-2~~~~~----9-9-999-7~7-7-77--2~~~~~------9-9999-7-777----|
E|-----------7-7-777~5~5-5-55--------------7-7777-5-555----|
|P.m.| | P.m.|
Part 2 play twice
e|--------------------------------------------------------5~--5~--|
B|---------------------9-----9--------------------------5~--5~--|
G|-9-9-999---------8/9---9--------9-9-999-----------------6~--6~--|
D|-9-9-999-9~9-999---------11-----9-9-999-9-9-999-7-7-777---77--7-|
A|-7-7-777-9~9-999----------------7-7-777-9-9-999-7-7-777---77--7-|
E|---------7~7-777------------------------7-7-777-5-5-555---55--5-|

solo
Gtr. 1
(hard to tab double digits, so rhythm may look off in places)
x2
e|---------------------------------|------------------------------->
B|---------------------------------|------------------------------->
G|-6-6-666-9-9-999---------6-66-66-|6-6-666-9-9-999-6-6-666-9-9-999>
D|-6-6-666-9-9-999-9-9-999-6-66-66-|6-6-666-9-9-999-6-6-666-9-9-999>
A|-4-4-444-7-7-777-9-9-999-4-44-44-|4-4-444-7-7-777-4-4-444-7-7-777>
E|-----------------7-7-777---------|------------------------------->

Gtr.2 x2
e|---------------------------------|--------------------------------->
B|---------------------------------|--------------------------------->
G|---------------------------------|-9~~~~8~~~9~~~~-9-999-13-13-11-11>
D|---------------------------------|----------------x-xxx--x--x--x--x>
A|-7-7-7/-9/119-7--7-7-7/119-7~~~|7---------------7-777-11-11--9--9>
E|---------------------------------|--------------------------------->

Gtr.1
>-------------------------------------------------
>-------------------------------------------------
>---------6-66-66-6-6-666-9-9-999-----------------
>-9-9-999-6-66-66-6-6-666-9-9-999-9-9-999-7-7-777-
>-9-9-999-4-44-44-4-4-444-7-7-777-9-9-999-7-7-777-
>-7-7-777-------------------------7-7-777-5-5-555-

Gtr.2
>-------------------------------------------------
>-------------------------------------------------
>-9-9-999-9-99-99-9-9-88--4-4-444-4-6-666-4~444444
>-x-x-xxx-x-xx-xx-x-x-xx--x-x-xxx-x-x-xxx-x-xxxxxx
>-7-7-777-7-77-77-7-7-66--2-2-222-2-4-444-2~222222
>-------------------------------------------------

Part 4 (winter beats the summer)
Gtr. 2 x3
e|-------------------------------|
B|-------------------------------|
G|---------6-66-66-99-999-9-99-99|
D|-9-9-999-6-66-66-99-999-9-99-99|
A|-9-9-999-4-44-44-77-777-7-77-77|
E|-7-7-777-----------------------|

part 5 (like the burning summer evenings)
x3
e|-------------------|----------------
B|-------------------|----------------
G|-9-99--------------|----------------
D|-9-99-999-7--------|-9-9-999-9-99-99
A|-7-77-999-7-777777-|-9-9-999-9-99-99
E|------777-5-555555-|-7-7-777-7-77-77
|__P.m_|

part 6 (lighten on distortion a bit)
(this town is choking) ()-unsure about note
e|--------------------------
B|-----------9~~~~----(9)~~~
G|-6~~~~8~~~~9~~~~6~~~~8~~~~
D|-7~~~~9~~~~9~~~~7~~~~9~~~~
A|-7~~~~9~~~~7~~~~7~~~~7~~~~
E|-5~~~~7~~~~-----5~~~~-----

part 7 (clean) (nevermore, nevertheless)
e|--------------------------------------------------------|
B|-------------------------9~-----------9---9-9---9---9~~~|
G|-----9-----9-----9-----9-9~--9----9-----9-9---9-9-9-9~~~|
D|---9---9-----9-----9-----7~----9----9-----7-----7---7~~~|
A|-7-------7-----7-----7-----7----------------------------|
E|--------------------------------------------------------|

Special thanks to Dan(UptownFreeRadio6@aol.com) who tabbed this first

email me Kody (pathetic303@hotmail.com) to talk about punk, or send death threats...whatever

key: / slide
slide
P.m. - palm mute
~ ring
x muted note
P pull-off

Клип Lawrence Arms - Chicago Is Burning

Текст песни Chicago Is Burning

Тексты песен Lawrence Arms являются собственностью правообладателей и лейбла Asian Man. Контент «Chicago Is Burning» представлен на нашем ресурсе исключительно для ознакомления и личного пользования.
All lyrics are property and copyright of their owners. All lyrics provided for educational purposes and personal use only.

Рекомендуем
Постер Alkaline Trio - She Took Him To The Lake
Alkaline Trio - She Took Him To The Lake
Панк / 14-04-2021
{views}
Постер Green Day - Burn Out
Green Day - Burn Out
Панк / 4-04-2021
{views}
Постер Green Day - Burnout
Green Day - Burnout
Панк / 4-04-2021
{views}
Постер Наив - To Tell The Truth
Наив - To Tell The Truth
Панк / 27-03-2021
{views}
Постер Flogging Molly - Far Away Boys
Flogging Molly - Far Away Boys
Панк / 8-10-2021
{views}
Комментарии (0)
Добавить
Кликните на изображение чтобы обновить код, если он неразборчив