Text-Pesni.ws » Панк » Gg Allin - In This Room
Постер Gg Allin - In This Room
0 0 00
Слушать

Текст песни In This Room
Gg Allin

!
  • Артист: Gg Allin
  • Название: In This Room
  • Лейбл: PONK Media
  • Просмотров: 15
  • Качество: 320 kbps
  • Добавлено: 28-09-2021

Слова песни Gg Allin - In This Room

Перевод
Tabbed by Jake Strange (Scumfuc).
Played on acoustic guitar. The tuning sounds a

Intro/verses:
e|---------------------------------------------3---------|


e|--------------------3-33333-333333-33------------------------3--(3)--|

Аккорды Gg Allin - In This Room

In This Room, by GG Allin.
Tabbed by Jake Strange (Scumfuc).
Email: jakestrange@chaosmagic.com
Played on acoustic guitar. The tuning sounds a
little off from the CD version, but it is correct.

Intro/verses:
e|---------------------------------------------3---------|
B|--7-----7-----7-----7-----7-----7------5-----3------7--|
G|--7-----7-----7-----7-----7-----7------5-----4------7--|
D|--7-----7-----7-----7-----7-----7------5-----5------7--|
A|--5-----5-----5-----5-----5-----5------3-----5------5--|
E|---------------------------------------------3---------|


Chorus:
e|--------------------3-33333-333333-33------------------------3--(3)--|
B|--5-5-555555-55555--3-33333-333333-33--7-7777-7-7-77777-777--3--(3)--|
G|--5-5-555555-55555--4-44444-444444-44--7-7777-7-7-77777-777--4--(4)--|
D|--5-5-555555-55555--5-55555-555555-55--7-7777-7-7-77777-777--5--(5)--|
A|--3-3-333333-33333--5-55555-555555-55--5-5555-5-5-55555-555--5--(5)--|
E|--------------------3-33333-333333-33------------------------3--(3)--|

Very simple, yet one of GG's best in my opinion.

Клип Gg Allin - In This Room

Текст песни In This Room

Тексты песен Gg Allin являются собственностью правообладателей и лейбла PONK Media. Контент «In This Room» представлен на нашем ресурсе исключительно для ознакомления и личного пользования.
All lyrics are property and copyright of their owners. All lyrics provided for educational purposes and personal use only.

Рекомендуем
Постер Gg Allin - No Rules
Gg Allin - No Rules
Панк / 28-09-2021
{views}
Постер Gg Allin - Die When You Die
Gg Allin - Die When You Die
Панк / 11-04-2021
{views}
Постер Green Day - I Want To Be Alone
Green Day - I Want To Be Alone
Панк / 28-03-2021
{views}
Постер Offspring - Have You Ever
Offspring - Have You Ever
Панк / 24-02-2021
{views}
Постер Spunge - Room For Abuse
Spunge - Room For Abuse
Панк / 5-02-2021
{views}
Комментарии (0)
Добавить
Кликните на изображение чтобы обновить код, если он неразборчив