Text-Pesni.ws » Панк » Anti-flag - Tearing Everyone Down
Постер Anti-flag - Tearing Everyone Down
0 0 00
Слушать

Текст песни Tearing Everyone Down
Anti-flag

!
  • Артист: Anti-flag
  • Название: Tearing Everyone Down
  • Лейбл: A-F
  • Просмотров: 19
  • Качество: 320 kbps
  • Добавлено: 6-05-2021

Слова песни Anti-flag - Tearing Everyone Down

Перевод
--------------------------------------|
--------------------------------------|
--------------------------------------|
-----6----6---6------4x---------------|
-4-4---4-4---4------------------------|
--------------------------------------|
Verse
------------------------------------------------------------------------------
------------------------------------------------------------------------------
-6-6-6-6-6-6-------------4-4-4-4-4-4-------------6-6-6-6-6-6------------------
-6-6-6-6-6-6-7-7-7-7-7-7-4-4-4-4-4-4-4-4-4-4-4-4-6-6-6-6-6-6-7-7-7-7-7-7------
-4-4-4-4-4-4-7-7-7-7-7-7-2-2-2-2-2-2-4-4-4-4-4-4-4-4-4-4-4-4-7-7-7-7-7-7------
-------------5-5-5-5-5-5-------------2-2-2-2-2-2-------------5-5-5-5-5-5------
. . . . . . . . . . . . . . . . . . . . . . . .

------------------------------------------------------------------------------
------------------------------------------------------------------------------
-4-4-4-4-4-4--------------------6--6-6-6---------4-4-4-4---------6-6-6-6------
-4-4-4-4-4-4-4-4--4-4--4-4--4-4-6--6-6-6-7-7-7-7-4-4-4-4-4-4-4-4-6-6-6-6------
-2-2-2-2-2-2-4-4--4-4--4-4--4-4-4--4-4-4-7-7-7-7-2-2-2-2-4-4-4-4-4-4-4-4------
-------------2-2--2-2--2-2--2-2----------5-5-5-5---------2-2-2-2--------------
. . . . . . . . . . . . .

--------------------------------------|
--------------------------------------|
---------4-4-4-4----------------------|
-7-7-7-7-4-4-4-4-4-4-4-4----pick------|
-7-7-7-7-2-2-2-2-4-4-4-4----scrape----|
-5-5-5-5---------2-2-2-2--------------|




------------------------------------------------------------------------------
------------------------------------------------------------------------------
-9-9-9-9---------6-6-6-6---------9-9-9-9---------6-6-6-6----------------------
-9-9-9-9-9-9-9-9-6-6-6-6-7-7-7-7-9-9-9-9-9-9-9-9-6-6-6-6-9-9-9-9-9-9-9-9-9-9--
-7-7-7-7-9-9-9-9-4-4-4-4-7-7-7-7-7-7-7-7-9-9-9-9-4-4-4-4-9-9-9-9-9-9-9-9-9-9--
---------7-7-7-7---------5-5-5-5---------7-7-7-7---------7-7-7-7-7-7-7-7-7-7--


--------------------------------------|
--------------------------------------|
--------------------------------------|
-9-9-9--------------------------------|
-9-9-9--------------------------------|
-7-7-7--------------------------------|




-------------------------------------------------------------------|
-------------------------------------------------------------------|
-6-6-6-6---------4-4-4-4---------6-6-6-6---------4-4-4-4-----------|
-6-6-6-6-7-7-7-7-4-4-4-4-4-4-4-4-6-6-6-6-7-7-7-7-4-4-4-4-4-4-4-4---|
-4-4-4-4-7-7-7-7-2-2-2-2-4-4-4-4-4-4-4-4-7-7-7-7-2-2-2-2-4-4-4-4---|
---------5-5-5-5---------2-2-2-2---------5-5-5-5---------2-2-2-2---|







Interlude
------------------------------------------------------------------------------
------------------------------------------------------------------------------
-6------------4---------------6----------------4------------------------------
-6-----7------4-------4-------6-------7--------4---------4-4--4-4--4-4--4-4---
-4-----7------2-------4-------4-------7--------2---------4-4--4-4--4-4--4-4---
-------5--------------2---------------5------------------2-2--2-2--2-2--2-2---
. . . . . . . .

------------------------------------------------------------------------------
------------------------------------------------------------------------------
-6-6-6-6-6---------------4-4-4-4-4---------------6-6-6-6---------4-4-4-4------
-6-6-6-6-6---7-7-7-7-7---4-4-4-4-4---4-4-4-4-4---6---6---7-7-7-7-4---4---4-4--
-4-4-4-4-4---7-7-7-7-7---2-2-2-2-2---4-4-4-4-4---4---4---7---7---2---2---4----
-------------5-5-5-5-5---------------2-2-2-2-2-----------5---5-----------2----
. . . . . . . . . . . . . . . . . . . . . . .

----------------------------------|
----------------------------------|
----------------------------------|
-4-4------------------------------|
-4--------------------------------|
-2--------------------------------|
.




Solo
-------------------------------9----------------------------------------------
-9-9-9----9-9-9----9-------------9-----------9v-12p9-12p9-12p9-12p9-12p9------
-------11-------11---11-9-11-9-----11-9----9----------------------------------
----------------------------------------11------------------------------------
------------------------------------------------------------------------------
------------------------------------------------------------------------------


----------------12b-12b-12b-12b-----------------------------------------------
-12p9-12p9-12p9-----------------9h12p9-9h12p9-9h12p9-9h12p9-9h12p9-12b-12b----
------------------------------------------------------------------------------
------------------------------------------------------------------------------
------------------------------------------------------------------------------
------------------------------------------------------------------------------


--------------------|
-12b-12b------------|
----------pick -----|
---------scrape----|
--------------------|
--------------------|
--------------------|




The chord over on the very last chorus
--------------------|
--------------------|
-6-6-6-6-6-6--------|
-x-x-x-x-x-x--------|
-4-4-4-4-4-4--------|
--------------------|

Аккорды Anti-flag - Tearing Everyone Down

--------------------------------------|
--------------------------------------|
--------------------------------------|
-----6----6---6------4x---------------|
-4-4---4-4---4------------------------|
--------------------------------------|
Verse
------------------------------------------------------------------------------
------------------------------------------------------------------------------
-6-6-6-6-6-6-------------4-4-4-4-4-4-------------6-6-6-6-6-6------------------
-6-6-6-6-6-6-7-7-7-7-7-7-4-4-4-4-4-4-4-4-4-4-4-4-6-6-6-6-6-6-7-7-7-7-7-7------
-4-4-4-4-4-4-7-7-7-7-7-7-2-2-2-2-2-2-4-4-4-4-4-4-4-4-4-4-4-4-7-7-7-7-7-7------
-------------5-5-5-5-5-5-------------2-2-2-2-2-2-------------5-5-5-5-5-5------
. . . . . . . . . . . . . . . . . . . . . . . .

------------------------------------------------------------------------------
------------------------------------------------------------------------------
-4-4-4-4-4-4--------------------6--6-6-6---------4-4-4-4---------6-6-6-6------
-4-4-4-4-4-4-4-4--4-4--4-4--4-4-6--6-6-6-7-7-7-7-4-4-4-4-4-4-4-4-6-6-6-6------
-2-2-2-2-2-2-4-4--4-4--4-4--4-4-4--4-4-4-7-7-7-7-2-2-2-2-4-4-4-4-4-4-4-4------
-------------2-2--2-2--2-2--2-2----------5-5-5-5---------2-2-2-2--------------
. . . . . . . . . . . . .

--------------------------------------|
--------------------------------------|
---------4-4-4-4----------------------|
-7-7-7-7-4-4-4-4-4-4-4-4----pick------|
-7-7-7-7-2-2-2-2-4-4-4-4----scrape----|
-5-5-5-5---------2-2-2-2--------------|




Pre Chorus
------------------------------------------------------------------------------
------------------------------------------------------------------------------
-9-9-9-9---------6-6-6-6---------9-9-9-9---------6-6-6-6----------------------
-9-9-9-9-9-9-9-9-6-6-6-6-7-7-7-7-9-9-9-9-9-9-9-9-6-6-6-6-9-9-9-9-9-9-9-9-9-9--
-7-7-7-7-9-9-9-9-4-4-4-4-7-7-7-7-7-7-7-7-9-9-9-9-4-4-4-4-9-9-9-9-9-9-9-9-9-9--
---------7-7-7-7---------5-5-5-5---------7-7-7-7---------7-7-7-7-7-7-7-7-7-7--


--------------------------------------|
--------------------------------------|
--------------------------------------|
-9-9-9--------------------------------|
-9-9-9--------------------------------|
-7-7-7--------------------------------|




Chorus
-------------------------------------------------------------------|
-------------------------------------------------------------------|
-6-6-6-6---------4-4-4-4---------6-6-6-6---------4-4-4-4-----------|
-6-6-6-6-7-7-7-7-4-4-4-4-4-4-4-4-6-6-6-6-7-7-7-7-4-4-4-4-4-4-4-4---|
-4-4-4-4-7-7-7-7-2-2-2-2-4-4-4-4-4-4-4-4-7-7-7-7-2-2-2-2-4-4-4-4---|
---------5-5-5-5---------2-2-2-2---------5-5-5-5---------2-2-2-2---|







Interlude
------------------------------------------------------------------------------
------------------------------------------------------------------------------
-6------------4---------------6----------------4------------------------------
-6-----7------4-------4-------6-------7--------4---------4-4--4-4--4-4--4-4---
-4-----7------2-------4-------4-------7--------2---------4-4--4-4--4-4--4-4---
-------5--------------2---------------5------------------2-2--2-2--2-2--2-2---
. . . . . . . .

------------------------------------------------------------------------------
------------------------------------------------------------------------------
-6-6-6-6-6---------------4-4-4-4-4---------------6-6-6-6---------4-4-4-4------
-6-6-6-6-6---7-7-7-7-7---4-4-4-4-4---4-4-4-4-4---6---6---7-7-7-7-4---4---4-4--
-4-4-4-4-4---7-7-7-7-7---2-2-2-2-2---4-4-4-4-4---4---4---7---7---2---2---4----
-------------5-5-5-5-5---------------2-2-2-2-2-----------5---5-----------2----
. . . . . . . . . . . . . . . . . . . . . . .

----------------------------------|
----------------------------------|
----------------------------------|
-4-4------------------------------|
-4--------------------------------|
-2--------------------------------|
.




Solo
-------------------------------9----------------------------------------------
-9-9-9----9-9-9----9-------------9-----------9v-12p9-12p9-12p9-12p9-12p9------
-------11-------11---11-9-11-9-----11-9----9----------------------------------
----------------------------------------11------------------------------------
------------------------------------------------------------------------------
------------------------------------------------------------------------------


----------------12b-12b-12b-12b-----------------------------------------------
-12p9-12p9-12p9-----------------9h12p9-9h12p9-9h12p9-9h12p9-9h12p9-12b-12b----
------------------------------------------------------------------------------
------------------------------------------------------------------------------
------------------------------------------------------------------------------
------------------------------------------------------------------------------


--------------------|
-12b-12b------------|
----------pick -----|
---------scrape----|
--------------------|
--------------------|
--------------------|




The chord over on the very last chorus
--------------------|
--------------------|
-6-6-6-6-6-6--------|
-x-x-x-x-x-x--------|
-4-4-4-4-4-4--------|
--------------------|

Клип Anti-flag - Tearing Everyone Down

Текст песни Tearing Everyone Down

Тексты песен Anti-flag являются собственностью правообладателей и лейбла A-F. Контент «Tearing Everyone Down» представлен на нашем ресурсе исключительно для ознакомления и личного пользования.
All lyrics are property and copyright of their owners. All lyrics provided for educational purposes and personal use only.

Рекомендуем
Постер Anti-flag - Anti Violent
Anti-flag - Anti Violent
Панк / 20-04-2021
{views}
Постер Anti-flag - Tearing Down The Borders
Anti-flag - Tearing Down The Borders
Панк / 6-05-2021
{views}
Постер Anti-flag - Drink Drank Punk
Anti-flag - Drink Drank Punk
Панк / 24-04-2021
{views}
Постер Anti-flag - Angry Young And Poor
Anti-flag - Angry Young And Poor
Панк / 20-04-2021
{views}
Комментарии (0)
Добавить
Кликните на изображение чтобы обновить код, если он неразборчив