Text-Pesni.ws » Метал » Эпический метал » Therion - Up To Netzach
Постер Therion - Up To Netzach
0 0 00
Слушать

Текст песни Up To Netzach
Therion

!
  • Артист: Therion
  • Название: Up To Netzach
  • Лейбл: Adulruna
  • Просмотров: 32
  • Качество: 320 kbps
  • Добавлено: 2-02-2021

Слова песни Therion - Up To Netzach

Перевод
indeed very simple.

Интро: (acoustic guitar)
h-------0^1-----1--------1-----0----------1--------------------------
g-----2-------2--------0-----0---0------2---2---2----------0---------
e------------------------------------------------------------0-------
h-------0^1-----1--------1-----0----------1----------------0---------
g-----2-------2--------0-----0---0------2---2---2--------1-----------
The rest of the song goes like this all the way through:
(more heavy of course with the choir n'stuff)
but I haven't been able to figure it out...

Аккорды Therion - Up To Netzach

This is song #11 on the album A'arab Zaraq Lucid Dreaming.
(A fucin' great album if you ask me). The song itself is
indeed very simple.
Enjoy!

Интро: (acoustic guitar)
Am G F E
h-------0^1-----1--------1-----0----------1--------------------------
g-----2-------2--------0-----0---0------2---2---2----------0---------
D---2-------2--------0-----0----------3-------3---3------1-----2---0-
A-0----------------------------------------------------2-----3---2---
E------------------3----------------1----------------0---------------
Am G F E
e------------------------------------------------------------0-------
h-------0^1-----1--------1-----0----------1----------------0---------
g-----2-------2--------0-----0---0------2---2---2--------1-----------
D---2-------2--------0-----0----------3-------3---3----2-------------
A-0------------------------------------------------------------------
E------------------3----------------1----------------0--------------->
The rest of the song goes like this all the way through:
(more heavy of course with the choir n'stuff)
Am G F E
I know he does something with his guitar when he plays the E there,
but I haven't been able to figure it out...

Клип Therion - Up To Netzach

Текст песни Up To Netzach

Тексты песен Therion являются собственностью правообладателей и лейбла Adulruna. Контент «Up To Netzach» представлен на нашем ресурсе исключительно для ознакомления и личного пользования.
All lyrics are property and copyright of their owners. All lyrics provided for educational purposes and personal use only.

Рекомендуем
Постер Therion - To Mega Therion
Therion - To Mega Therion
Эпический метал / 2-02-2021
{views}
Постер Therion - Morbid Reality
Therion - Morbid Reality
Эпический метал / 2-02-2021
{views}
Постер Therion - Under Jolly Roger
Therion - Under Jolly Roger
Эпический метал / 2-02-2021
{views}
Постер Therion - Cults Of The Shadow
Therion - Cults Of The Shadow
Эпический метал / 2-02-2021
{views}
Комментарии (0)
Добавить
Кликните на изображение чтобы обновить код, если он неразборчив