Text-Pesni.ws » Метал » Эпический метал » HammerFall - Renegade
Постер HammerFall - Renegade
0 0 00
Слушать

Текст песни Renegade
HammerFall

!
  • Артист: HammerFall
  • Название: Renegade
  • Лейбл: Nuclear Blast
  • Просмотров: 10
  • Качество: 320 kbps
  • Добавлено: 29-09-2021

Слова песни HammerFall - Renegade

Перевод
Title: Renegade

-||-------------------------------|-----------------------------------------|-
-||-------------------------------|-----------------------------------------|-
-||-------------------------------|-----------------------------------------|-
-||----7--------7--------9--10----|------7--------7--------9--10------------|-
-||----0--0--0--0--0--0-----------|------0--0--0--0--0--0-------------------|-
-||-------------------------------|-----------------------------------------|-


-|--------------------------------|-----------------------------------------|-
-|--------------------------------|-----------------------------------------|-
-|--------------------------------|-----------------------------------------|-
-|-----7--------7--------9--10----|------12------10-------9------6----------|-
-|-----8--8--8--8--8--8-----------|------10--10--10--10--10--10--7--7-------|-
-|--------------------------------|-----------------------------------------|-


-|--------------------------------|-----------------------------------------|-
-|--------------------------------|-----------------------------------------|-
-|--------------------------------|-----------------------------------------|-
-|-----7--------7--------9--10----|------7--------7--------9--10------------|-
-|-----0--0--0--0--0--0-----------|------0--0--0--0--0--0-------------------|-
-|--------------------------------|-----------------------------------------|-


-|--------------------------------|-----------------------------------------|-
-|--------------------------------|-----------------------------------------|-
-|--------------------------------|-----------------------------------------|-
-|-----7--------7--------9--10----|------12------10------14------10---------|-
-|-----8--8--8--8--8--8-----------|------10--10--10--10--10--10--10--10-----|-
-|--------------------------------|-----------------------------------------|-


-|--------------------------------|----------------------------------------||-
-|--------------------------------|----------------------------------------||-
-|-----2--------------------------|------9-------5-------2-----------------||-
-|-----2--------------------------|------9-------5-------2-----------------||-
-|-----0--------------------------|------7-------3-------0-----------------||-
-|--------------------------------|----------------------------------------||-

Аккорды HammerFall - Renegade

Author/Artist: Hammer Fall
Title: Renegade
Album: Renegade
Transcribed by: Dela
Email: dany_dela@yahoo.it

-||-------------------------------|-----------------------------------------|-
-||-------------------------------|-----------------------------------------|-
-||-------------------------------|-----------------------------------------|-
-||----7--------7--------9--10----|------7--------7--------9--10------------|-
-||----0--0--0--0--0--0-----------|------0--0--0--0--0--0-------------------|-
-||-------------------------------|-----------------------------------------|-


-|--------------------------------|-----------------------------------------|-
-|--------------------------------|-----------------------------------------|-
-|--------------------------------|-----------------------------------------|-
-|-----7--------7--------9--10----|------12------10-------9------6----------|-
-|-----8--8--8--8--8--8-----------|------10--10--10--10--10--10--7--7-------|-
-|--------------------------------|-----------------------------------------|-


-|--------------------------------|-----------------------------------------|-
-|--------------------------------|-----------------------------------------|-
-|--------------------------------|-----------------------------------------|-
-|-----7--------7--------9--10----|------7--------7--------9--10------------|-
-|-----0--0--0--0--0--0-----------|------0--0--0--0--0--0-------------------|-
-|--------------------------------|-----------------------------------------|-


-|--------------------------------|-----------------------------------------|-
-|--------------------------------|-----------------------------------------|-
-|--------------------------------|-----------------------------------------|-
-|-----7--------7--------9--10----|------12------10------14------10---------|-
-|-----8--8--8--8--8--8-----------|------10--10--10--10--10--10--10--10-----|-
-|--------------------------------|-----------------------------------------|-


-|--------------------------------|----------------------------------------||-
-|--------------------------------|----------------------------------------||-
-|-----2--------------------------|------9-------5-------2-----------------||-
-|-----2--------------------------|------9-------5-------2-----------------||-
-|-----0--------------------------|------7-------3-------0-----------------||-
-|--------------------------------|----------------------------------------||-

Клип HammerFall - Renegade

Текст песни Renegade

Тексты песен HammerFall являются собственностью правообладателей и лейбла Nuclear Blast. Контент «Renegade» представлен на нашем ресурсе исключительно для ознакомления и личного пользования.
All lyrics are property and copyright of their owners. All lyrics provided for educational purposes and personal use only.

Рекомендуем
Постер HammerFall - Templars Of Steel
HammerFall - Templars Of Steel
Эпический метал / 11-04-2021
{views}
Постер HammerFall - Heeding The Call
HammerFall - Heeding The Call
Эпический метал / 29-09-2021
{views}
Постер HammerFall - Ravenlord
HammerFall - Ravenlord
Эпический метал / 29-09-2021
{views}
Постер HammerFall - Stronger Than All
HammerFall - Stronger Than All
Эпический метал / 29-09-2021
{views}
Постер HammerFall - Let The Hammer Fall
HammerFall - Let The Hammer Fall
Эпический метал / 29-09-2021
{views}
Комментарии (0)
Добавить
Кликните на изображение чтобы обновить код, если он неразборчив