Text-Pesni.ws » Метал » Эпический метал » HammerFall - Stonger Then All
Постер HammerFall - Stonger Then All
0 0 00
Слушать

Текст песни Stonger Then All
HammerFall

!
  • Артист: HammerFall
  • Название: Stonger Then All
  • Лейбл: Nuclear Blast
  • Просмотров: 15
  • Качество: 320 kbps
  • Добавлено: 29-09-2021

Слова песни HammerFall - Stonger Then All

Перевод
How to play:
bh: bend a half step
bf: bend a full step
h: hammer on
p: pull-off
pm---|:palm-mute


INTRO
-----

| Rhy. fig. 1
e|------------------|------------------|------------------|------------------|------------------|

end rhy. fig. 1
pm-----------------------------| pm---------------------|
e|------------------|------------------|------------------|------------------|


e|------------------|------------------|------------------|------------------|


e|------------------|------------------|------------------|------------------|


Rhy. fig. 2
pm----------| pm----------| pm-| pm-|
e||--------------------|------------------|------------------|------------------|

end rhy. fig. 2
pm----------| pm----------| pm-| pm-|
e|------------------|------------------|------------------|--------------------||


---------

e|------------------|------------------|------------------|------------------|

e|------------------|------------------|------------------|------------------|

e|------------------|------------------|------------------|------------------|

e|------------------|------------------|------------------|------------------|


------


pm---------------------| pm---------------------|
e|------------------|------------------|------------------|------------------|
| |
| pm-----------------------------| pm-----------------------------| |
e|------------------|------------------|------------------|------------------|

pm---------------------| pm-----------------------------|
e|------------------|------------------|------------------|------------------|
| |
| pm-----------------------------| |
e|------------------|------------------| Then both guitars plays the same

pm----------| pm--| pm--| pm pm----------| pm--| pm--| pm
e|------------------|------------------|------------------|------------------|

pm----------| pm----------|
e|------------------|------------------|------------------|------------------|


------

Rhy. fig. 1
then,
rhy. fig. 2 x2


2nd verse
---------

Same as "1st"


------

Same as last time


------

Rhy. fig. 1
then,
rhy. fig. 2 x2


------

pm--| pm--| pm--| pm--| pm--| pm--| pm pm--| pm--|
e|------------------|------------------|------------------|------------------|

repeat x3


------

I´m sorry that I haven´t got this completly figured out. If you think you kow
it, contact me imideatly

pm--| pm--| pm pm--| pm--| pm pm--| pm--| pm pm--| pm--| pm
e|------------------|------------------|------------------|------------------|
The past and the...

pm--| pm--| pm pm--| pm--| pm
e|------------------|------------------|------------------|------------------|


SOLO 1
------
Lead git:

e|----------------|----------------|-21hb-----------|-22fb-----------|-17fb-----------|

e|-22----------21-----------|-21-19--------------------|--------------------------|

e|--------------------------|----------------------17--|----17-19-17----17--------|

e|-------------------14p12h14-|-15p14h15-17p15h17-19p17h19-21p19p17-|-22fb-------|

e|-17-19-15-19-14-19----19--|----19----19----19--------|


Rhythm git:

pm-----------------------------|
e|------------------|------------------|------------------|------------------|

pm-----------------------------|
e|------------------|------------------|------------------|------------------|

pm-----------------------------|
e|------------------|------------------|------------------|------------------|

pm-----------------------------|
e|------------------|------------------|------------------|------------------|


SOLO 2
------

Play the same rhythm as "bridge"
Lead:

e|------------------|------------------|------------------|------------------|

e|----------------------------------|----------------------------------|

e|--------------------------------------|--------------------------------------|

e|----------------------------------|----------------------------------|

e|------------------|------------------|------------------|------------15-17-|

I´m not sure if these two bars are correct.
e|-19p17p15-----------------------------|--------------------------------------|


Outro
-----

Rhy. fig. 1 x2

pm----------| pm----------| pm-| pm-|
e|------------------|------------------|------------------|------------------|

pm----------| pm----------| pm-| pm-|
e|------------------|------------------|------------------|------------------|

pm----------| pm----------| pm-| pm-|
e|------------------|------------------|------------------|------------------|

pm----------| pm----------| pm-| pm-|
e|------------------|------------------|------------------|------------------|

pm----------| pm----------| pm-| pm-|
e|------------------|------------------|------------------|------------------|-----|

Outcast a time of war, when mankind lost control
Of life and death, under surveillance
Out in the ruins they seek shelter
These streets were once my home, but those
Stone cold, man or machine
Stone cold, the end of our dream
The word is on the street, it´s kill or to be killed
With no exception you are on your own
We should have seen it all along, the writings
On the wall, tell me what have we becom
Stone cold, man or machine
Stone cold, the end of our dream
Who do you believe in now, when the prophecy
These streets were once my home, but those
Stone cold, man or machine
Stone cold, the end of our dream

Аккорды HammerFall - Stonger Then All

How to play:
bh: bend a half step
bf: bend a full step
h: hammer on
p: pull-off
pm---|:palm-mute


INTRO
-----

| Rhy. fig. 1
e|------------------|------------------|------------------|------------------|------------------|
B|------------------|------------------|------------------|------------------|------------------|
G|------------------|------------------|------------------|---------7--------|-9----------------|
D|---------5---4----|-2----------------|-5----------------|-5-------7--------|-9----------------|
A|---------5---4----|-2----------------|-5----------------|-5-------5--------|-7----------------|
E|---------3---2----|-0----------------|-3----------------|-3----------------|------------------|

end rhy. fig. 1
pm-----------------------------| pm---------------------|
e|------------------|------------------|------------------|------------------|
B|------------------|------------------|------------------|------------------|
G|------------------|------------------|------------------|------------------|
D|-5----------------|------------------|-4----------------|---------5---4----|
A|-3---3-3-3-3-3-3--|-3-3-3-3-3-3-3-3--|-2---2-2-2-2-2-2--|-2-2-2-2-5---4----|
E|------------------|------------------|------------------|---------3---2----|


e|------------------|------------------|------------------|------------------|
B|------------------|------------------|------------------|------------------|
G|------------------|------------------|-5-------7--------|-9----------------|
D|-2----------------|-5----------------|-5-------7--------|-9----------------|
A|-2----------------|-5----------------|-3-------5--------|-7----------------|
E|-0----------------|-3----------------|------------------|------------------|


e|------------------|------------------|------------------|------------------|
B|------------------|------------------|------------------|------------------|
G|------------------|------------------|------------------|-7----------------|
D|-7----------------|------------------|-5----------------|-7----------------|
A|-7----------------|------------------|-5----------------|-5----------------|
E|-5----------------|------------------|-3----------------|------------------|


Rhy. fig. 2
pm----------| pm----------| pm-| pm-|
e||--------------------|------------------|------------------|------------------|
B||--------------------|------------------|------------------|------------------|
G||-*------------------|------------------|------------------|------------------|
D||-*-9----------------|-12----9-----4----|-5----------------|-7-----5-----4----|
A||---7---7-7-7-7-7-7--|-10----7-----2----|-3---3-3-3-3-3-3--|---3-3---3-3---3--|
E||--------------------|------------------|------------------|------------------|

end rhy. fig. 2
pm----------| pm----------| pm-| pm-|
e|------------------|------------------|------------------|--------------------||
B|------------------|------------------|------------------|--------------------||
G|------------------|------------------|------------------|------------------*-||
D|-9----------------|-12----9-----4----|-5----------------|-5-----7-----4----*-||
A|-7---7-7-7-7-7-7--|-10----7-----2----|-3---3-3-3-3-3-3--|---0-0---0-0--------||
E|------------------|------------------|------------------|--------------------||


1st VERSE
---------

e|------------------|------------------|------------------|------------------|
B|------------------|------------------|------------------|------------------|
G|------------------|------------------|------------------|------------------|
D|-9----------------|-------------4----|-5----------------|-------------7----|
A|-7----------------|-------------2----|-3----------------|-------------5----|
E|------------------|------------------|------------------|------------------|
Always standing proud...

e|------------------|------------------|------------------|------------------|
B|------------------|------------------|------------------|------------------|
G|------------------|------------------|------------------|------------------|
D|-9----------------|-------------4----|-5----------------|-7-------5---4----|
A|-7----------------|-------------2----|-3----------------|-7-------5---4----|
E|------------------|------------------|------------------|-5-------3---2----|

e|------------------|------------------|------------------|------------------|
B|------------------|------------------|------------------|------------------|
G|------------------|------------------|------------------|------------------|
D|-9----------------|-------------4----|-5----------------|------------------|
A|-7----------------|-------------2----|-3----------------|------------------|
E|------------------|------------------|------------------|------------------|

e|------------------|------------------|------------------|------------------|
B|------------------|------------------|------------------|------------------|
G|------------------|------------------|------------------|------------------|
D|-5----------------|------------------|-7----------------|-9----------------|
A|-3----------------|------------------|-7----------------|-9----------------|
E|------------------|------------------|-5----------------|-7----------------|


Bridge
------


pm---------------------| pm---------------------|
e|------------------|------------------|------------------|------------------|
B|------------------|------------------|------------------|------------------|
G|------------------|------------------|------------------|------------------|
D|------------------|---------5--------|-7----------------|---------7--------|
A|-5----------------|-------------3----|-5---5-5-5-5-5-5--|-5-5-5-5-----8----|
E|-3---3-3-3-3-3-3--|-3-3-3-3----------|------------------|------------------|
| |
| pm-----------------------------| pm-----------------------------| |
e|------------------|------------------|------------------|------------------|
B|------------------|------------------|------------------|------------------|
G|------------------|------------------|------------------|------------------|
D|------------------|------------------|-7----------------|------------------|
A|-5----------------|------------------|-5---5-5-5-5-5-5--|-5-5-5-5-5-5-5-5--|
E|-3---3-3-3-3-3-3--|-3-3-3-3-3-3-3-3--|------------------|------------------|
Come and fly with...

pm---------------------| pm-----------------------------|
e|------------------|------------------|------------------|------------------|
B|------------------|------------------|------------------|------------------|
G|------------------|------------------|------------------|------------------|
D|------------------|---------9---10---|-9----------------|------------------|
A|-7----------------|------------------|-7---7-7-7-7-7-7--|-7-7-7-7-7-7-7-7--|
E|-5---5-5-5-5-5-5--|-5-5-5-5----------|------------------|------------------|
| |
| pm-----------------------------| |
e|------------------|------------------| Then both guitars plays the same
B|------------------|------------------|
G|------------------|------------------|
D|------------------|------------------|
A|-7----------------|------------------|
E|-5---5-5-5-5-5-5--|-5-5-5-5-5-5-5-5--|

pm----------| pm--| pm--| pm pm----------| pm--| pm--| pm
e|------------------|------------------|------------------|------------------|
B|------------------|------------------|------------------|------------------|
G|------------------|------------------|------------------|------------------|
D|-5----------------|-5-----5-----5----|------------------|------------------|
A|-3---3-3-3-3-3-3--|-3-3-3-3-3-3-3-3--|-5----------------|-5-----5-----5----|
E|------------------|------------------|-3---3-3-3-3-3-3--|-3-3-3-3-3-3-3-3--|

pm----------| pm----------|
e|------------------|------------------|------------------|------------------|
B|------------------|------------------|------------------|------------------|
G|------------------|------------------|------------------|------------------|
D|-7----------------|-7----------------|-4-------4--------|-4-------5---4----|
A|-5---5-5-5-5-5-5--|-5---5-5-5-5-5-5--|-2-------2--------|-2-------5---4----|
E|------------------|------------------|------------------|---------3---2----|


Chorus
------

Rhy. fig. 1
then,
rhy. fig. 2 x2


2nd verse
---------

Same as "1st"


Bridge
------

Same as last time


Chorus
------

Rhy. fig. 1
then,
rhy. fig. 2 x2


Riff A
------

pm--| pm--| pm--| pm--| pm--| pm--| pm pm--| pm--|
e|------------------|------------------|------------------|------------------|
B|------------------|------------------|------------------|------------------|
G|------------------|------------------|------------------|------------------|
D|-5-----4-----4p2--|-5-----4-----2h4--|-5-----4-----4----|-4-----2-----2p0--|
A|---2-2---2-2------|---2-2---2-2------|---2-2---2-2---2--|---0-0---0-0------|
E|------------------|------------------|------------------|------------------|

repeat x3


Riff B
------

I´m sorry that I haven´t got this completly figured out. If you think you kow
it, contact me imideatly

pm--| pm--| pm pm--| pm--| pm pm--| pm--| pm pm--| pm--| pm
e|------------------|------------------|------------------|------------------|
B|------------------|------------------|------------------|------------------|
G|------------------|------------------|------------------|------------------|
D|-7-----5-----7----|-8-----7-----5----|------------------|------------------|
A|---5-5---5-5---5--|---5-5---5-5---5--|-?-----?-----?----|-?-----?-----?----|
E|------------------|------------------|---5-5---5-5---5--|---5-5---5-5---5--|
The past and the...

pm--| pm--| pm pm--| pm--| pm
e|------------------|------------------|------------------|------------------|
B|------------------|------------------|------------------|------------------|
G|------------------|------------------|-10---------------|------------------|
D|-7-----5-----7----|-8-----7-----5----|-10---------------|-10---------------|
A|---5-5---5-5---5--|---5-5---5-5---5--|-8----------------|-10---------------|
E|------------------|------------------|------------------|-8----------------|


SOLO 1
------
Lead git:

e|----------------|----------------|-21hb-----------|-22fb-----------|-17fb-----------|
B|-17fb-----------|----------------|----------------|----------------|----------17-19-|
G|----------------|----------------|----------------|----------------|----------------|
D|----------------|----------------|----------------|----------------|----------------|
A|----------------|----------------|----------------|----------------|----------------|
E|----------------|----------------|----------------|----------------|----------------|

e|-22----------21-----------|-21-19--------------------|--------------------------|
B|----19-17-19----19-17-19--|------19p17p15------------|--------------------------|
G|--------------------------|--------------18-16-------|--------------------------|
D|--------------------------|--------------------19-17-|-16----------------16-19--|
A|--------------------------|--------------------------|----19-17-16-17-19--------|
E|--------------------------|--------------------------|--------------------------|

e|--------------------------|----------------------17--|----17-19-17----17--------|
B|--------------------------|-------15-17-19-17-19-----|-19----------19---19-17p19|
G|-16-----------------------|-14-16--------------------|--------------------------|
D|--------------------------|--------------------------|--------------------------|
A|--------------------------|--------------------------|--------------------------|
E|--------------------------|--------------------------|--------------------------|

e|-------------------14p12h14-|-15p14h15-17p15h17-19p17h19-21p19p17-|-22fb-------|
B|-19-17-15-17-15-17----------|-------------------------------------|------------|
G|----------------------------|-------------------------------------|------------|
D|----------------------------|-------------------------------------|------------|
A|----------------------------|-------------------------------------|------------|
E|----------------------------|-------------------------------------|------------|

e|-17-19-15-19-14-19----19--|----19----19----19--------|
B|-------------------17-----|-15----14-----------------|
G|--------------------------|-------------16----14-----|
D|--------------------------|--------------------------|
A|--------------------------|--------------------------|
E|--------------------------|--------------------------|


Rhythm git:

pm-----------------------------|
e|------------------|------------------|------------------|------------------|
B|------------------|------------------|------------------|------------------|
G|------------------|------------------|------------------|------------------|
D|-4----------------|------------------|-7----------------|-9----------------|
A|-2---2-2-2-2-2-2--|-2-2-2-2-2-2-2-2--|-5----------------|-7----------------|
E|------------------|------------------|------------------|------------------|

pm-----------------------------|
e|------------------|------------------|------------------|------------------|
B|------------------|------------------|------------------|------------------|
G|------------------|------------------|------------------|------------------|
D|-4----------------|------------------|------------------|------------------|
A|-2---2-2-2-2-2-2--|-2-2-2-2-2-2-2-2--|-5----------------|-7----------------|
E|------------------|------------------|-3----------------|-5----------------|

pm-----------------------------|
e|------------------|------------------|------------------|------------------|
B|------------------|------------------|------------------|------------------|
G|------------------|------------------|------------------|------------------|
D|-4----------------|------------------|-7----------------|-9----------------|
A|-2---2-2-2-2-2-2--|-2-2-2-2-2-2-2-2--|-5----------------|-7----------------|
E|------------------|------------------|------------------|------------------|

pm-----------------------------|
e|------------------|------------------|------------------|------------------|
B|------------------|------------------|------------------|------------------|
G|------------------|------------------|------------------|------------------|
D|-4----------------|------------------|------------------|------------------|
A|-2---2-2-2-2-2-2--|-2-2-2-2-2-2-2-2--|-5----------------|-7----------------|
E|------------------|------------------|-3----------------|-5----------------|


SOLO 2
------

Play the same rhythm as "bridge"
Lead:

e|------------------|------------------|------------------|------------------|
B|------------------|-------------12---|------------------|---------------12-|
G|-12---------12-12-|-12----14---------|-14----------11---|------------14----|
D|------------------|------------------|------------------|-12---------------|
A|------------------|------------------|------------------|------------------|
E|------------------|------------------|------------------|------------------|

e|----------------------------------|----------------------------------|
B|-13----------------------13--13---|-13------12h13p12h13p12-----------|
G|----------------------------------|------------------------14--------|
D|----------------------------------|----------------------------------|
A|----------------------------------|----------------------------------|
E|----------------------------------|----------------------------------|

e|--------------------------------------|--------------------------------------|
B|-12-----------------------------------|--------------------------------------|
G|-------------------11p9h-11p9h-11p9---|-12p11h12p11h12p11-14p12h14p12h14p12--|
D|--------------------------------------|--------------------------------------|
A|--------------------------------------|--------------------------------------|
E|--------------------------------------|--------------------------------------|

e|----------------------------------|----------------------------------|
B|-13----------------------13--13---|-13------12h13p12h13p12-----------|
G|----------------------------------|------------------------14--------|
D|----------------------------------|----------------------------------|
A|----------------------------------|----------------------------------|
E|----------------------------------|----------------------------------|

e|------------------|------------------|------------------|------------15-17-|
B|-12---------------|-12----13----15bf-|-r(15)------------|------------------|
G|-------------12---|------------------|------------------|------------------|
D|------------------|------------------|------------------|------------------|
A|------------------|------------------|------------------|------------------|
E|------------------|------------------|------------------|------------------|

I´m not sure if these two bars are correct.
e|-19p17p15-----------------------------|--------------------------------------|
B|----------19p17p15-19p17p15-----------|--------------------------------------|
G|----------------------------17p16p14--|-17p16p14-----------------------------|
D|--------------------------------------|----------17p16p14-17p16p14-----------|
A|--------------------------------------|----------------------------17p16p14--|
E|--------------------------------------|--------------------------------------|


Outro
-----

Rhy. fig. 1 x2

pm----------| pm----------| pm-| pm-|
e|------------------|------------------|------------------|------------------|
B|------------------|------------------|------------------|------------------|
G|------------------|------------------|------------------|------------------|
D|-9----------------|-12----9-----4----|-5----------------|-7-----5-----4----|
A|-7---7-7-7-7-7-7--|-10----7-----2----|-3---3-3-3-3-3-3--|---3-3---3-3---3--|
E|------------------|------------------|------------------|------------------|

pm----------| pm----------| pm-| pm-|
e|------------------|------------------|------------------|------------------|
B|------------------|------------------|------------------|------------------|
G|------------------|------------------|------------------|------------------|
D|-9----------------|-12----9-----4----|-5----------------|-5-----7-----4----|
A|-7---7-7-7-7-7-7--|-10----7-----2----|-3---3-3-3-3-3-3--|---0-0---0-0------|
E|------------------|------------------|------------------|------------------|

pm----------| pm----------| pm-| pm-|
e|------------------|------------------|------------------|------------------|
B|------------------|------------------|------------------|------------------|
G|------------------|------------------|------------------|------------------|
D|-9----------------|-12----9-----4----|-5----------------|-7-----5-----4----|
A|-7---7-7-7-7-7-7--|-10----7-----2----|-3---3-3-3-3-3-3--|---3-3---3-3---3--|
E|------------------|------------------|------------------|------------------|

pm----------| pm----------| pm-| pm-|
e|------------------|------------------|------------------|------------------|
B|------------------|------------------|------------------|------------------|
G|------------------|------------------|------------------|------------------|
D|-9----------------|-12----9-----4----|-5----------------|-5-----4-----5----|
A|-7---7-7-7-7-7-7--|-10----7-----2----|-3---3-3-3-3-3-3--|-3-----3-----3----|
E|------------------|------------------|------------------|------------------|

pm----------| pm----------| pm-| pm-|
e|------------------|------------------|------------------|------------------|-----|
B|------------------|------------------|------------------|------------------|-----|
G|------------------|------------------|------------------|------------------|-----|
D|-7----------------|-7-----5-----4----|-5----------------|-5-----4-----5----|-9---|
A|-5---5-5-5-5-5-5--|-5-----5-----5----|-3---3-3-3-3-3-3--|-3-----3-----3----|-7---|
E|------------------|------------------|------------------|------------------|-----|

Outcast a time of war, when mankind lost control
Of life and death, under surveillance
I watch the children pray, while God just turns away
Out in the ruins they seek shelter
These streets were once my home, but those
Golden days are gone, now I´m fighting to survive
Stone cold, man or machine
Stone cold, the end of our dream
The word is on the street, it´s kill or to be killed
With no exception you are on your own
We should have seen it all along, the writings
On the wall, tell me what have we becom
Stone cold, man or machine
Stone cold, the end of our dream
Who do you believe in now, when the prophecy
Came true, the final deja vu
These streets were once my home, but those
Golden days are gone, now I´m fighting to survive
Stone cold, man or machine
Stone cold, the end of our dream

Клип HammerFall - Stonger Then All

Текст песни Stonger Then All

Тексты песен HammerFall являются собственностью правообладателей и лейбла Nuclear Blast. Контент «Stonger Then All» представлен на нашем ресурсе исключительно для ознакомления и личного пользования.
All lyrics are property and copyright of their owners. All lyrics provided for educational purposes and personal use only.

Рекомендуем
Постер HammerFall - Heeding The Call
HammerFall - Heeding The Call
Эпический метал / 29-09-2021
{views}
Постер HammerFall - Ravenlord
HammerFall - Ravenlord
Эпический метал / 29-09-2021
{views}
Постер HammerFall - Stronger Than All
HammerFall - Stronger Than All
Эпический метал / 29-09-2021
{views}
Постер HammerFall - Renegade
HammerFall - Renegade
Эпический метал / 29-09-2021
{views}
Постер HammerFall - Let The Hammer Fall
HammerFall - Let The Hammer Fall
Эпический метал / 29-09-2021
{views}
Комментарии (0)
Добавить
Кликните на изображение чтобы обновить код, если он неразборчив