Text-Pesni.ws » Метал » Эпический метал » HammerFall - In Memoriam
Постер HammerFall - In Memoriam
0 0 00
Слушать

Текст песни In Memoriam
HammerFall

!
  • Артист: HammerFall
  • Название: In Memoriam
  • Лейбл: Nuclear Blast
  • Просмотров: 9
  • Качество: 320 kbps
  • Добавлено: 29-09-2021

Слова песни HammerFall - In Memoriam

Перевод
e ||------------------------------------------- p.h......------------||
b ||----12-14-14b(16)r14-12-11-12~-12-11-------11b(12)r11------------||
g ||-13~---------------------------------13-11------------13---------||

(0:10)
e ||-----------------------------------------------------------------||
b ||---11-12-11h12p11h12p11--11-12--14b(16)r14--11b(12)r11-----------||
g ||-13--------------------13-----------------------------13~-------||

(0:20)
e ||-----------------------------------------------------------------||
b ||-----------------------------------------------------------------||
g ||-/13-13-14-14/16-16-16-16-14-13-13--13-13-/1411-----------------||

(0:27)
e ||-----------------------------------------------------------------||
b ||-----------------------------------------------------------------||
g ||------------------13-13-11----13-b(14)-r13p-11~-----------------||

(0:35)
e ||-------12-14-b(16)~-r(14)-12--14-12h14p1211---------------------||
b ||----14---------------------------------------12-/12b(14)~-------||
g ||-/13-------------------------------------------------------------||

(0:42)
e ||-----------12-14-14b(16)r14-11---------------------------------------||
b ||-12b(14)-14-------------------12b(14)---11-12-11h12p11h12p11---------||
g ||--------------------------------------13--------------------13-11/13~||

(0:50)
e ||-------------------------------------- p.h......-----------------||
b ||-12-14-14b(16)r14-12-11-12~-12-11------11b(12)r11----------------||
g ||---------------------------------13-11------------13-------------||

(0:58)
e ||-----------------------------------------------------------------||
b ||---11-12-11h12p11h12p11--11-12--14b(16)r14--11b(12)r11-----------||
g ||-13--------------------13-----------------------------13~-------||

(1:08)
e ||---------------11-11b(12)-r11------------------------------------||
b ||-------------14--------------14-12--12-10h12p109----------------||
g ||-11b(13)-(13)-------------------------------------11------------||

(1:15)
e ||---------------------------------------------------------p.h.----||
b ||-----------------------------------------------12b(14)r12-12-----||
g ||-11b(13)-(13)~-(13)r11p9h11-11b(13)~--11-13-14-------------------||

(1:22)
e ||---11-12--11---11-12/14-14b(16)r14b(16)~-16-17-17b(19)~-(19)r17-16-14||
b ||-14---------14-------------------------------------------------------||
g ||---------------------------------------------------------------------||

(1:29)
e ||-------11-12-b(14)~-11b(12)r11------18-19-18h19p18h19p18-------------||
b ||-----14-----------------------14--21--------------------21-19b(21)~--||
g ||-14~-----------------------------------------------------------------||

e ||----------------------------------------p.h.......---------------||
b ||-12-14-14b(16)r14-12-11-12~-12-11-------11b(12)r11---------------||
g ||----------------------------------13-11------------13------------||

(1:46)
e ||-----------------------------------------------------------------||
b ||---11-12-11h12p11h12p11--11-12--14b(16)r14--11b(12)r11-----------||
g ||-13--------------------13-----------------------------13---------||

(1:53)
e ||-----------------------------------------------------------------||
b ||-12-14-14b(16)r14-12-11-12~--12-11-12-14--11b(12)r11-------------||
g ||-----------------------------------------------------13----------||

(2:00)
e ||-12-14-14b(16)~-r14-14--12h14p12p11------p.h........-14b(16)~----||
b ||------------------------------------14----11b(12)r12-------------||
g ||-----------------------------------------------------------------||

(2:09)
e ||-16-18-19~-19-18h19h18p16-----------------14-14b(16)~------------||
b ||--------------------------19--14b(16)-(16)-----------------------||
g ||-----------------------------------------------------------------||

(2:16)
e ||--------------14-16-12~-12h14b(16)-r14p12h14-12-11-12-11h12p11h12p11-||
b ||-14b(16)-(16)--------------------------------------------------------||
g ||---------------------------------------------------------------------||

(2:21)
e ||------p.h.-----------------19b(21)r19-16-18-19-19b(21)-(21)r19-17-16-||
b ||-14-12-14--14-12-h14p12p11-------------------------------------------||
g ||---------------------------------------------------------------------||

(2:30)
e ||-12-14-14b(16)~--19b(21)-(21)-(21)-(21)-(21)r19-19---------------||
b ||-----------------------------------------------------------------||
g ||-----------------------------------------------------------------||

(2:34)
e ||-21b(23)-(23)-(23)-(23)-(23)r21b(23)r21-18~----------------------||
b ||-----------------------------------------------------------------||
g ||-----------------------------------------------------------------||

(2:37)
e ||-----------------------------------------------------------------||
b ||------------------------12-14-14/16-14h16p14h16p14-12-11-12------||
g ||---------------------/13-----------------------------------------||

(2:44)
e ||-------------------------------------------------------------p.h.--||
b ||-12-11h12----11-12-11h12p11------11-12-11h12p11h12p11--11-12--14~-||
g ||---------11----------------13--13--------------------13------------||

Now just play the chorus twice playing every note 7 frets higher.
So you would start like this:
e ||----13-14-16b(18)r16-14-13-14------------------------------------||
b ||-16~-------------------------------------------------------------||
g ||-----------------------------------------------------------------||

Аккорды HammerFall - In Memoriam

e ||------------------------------------------- p.h......------------||
b ||----12-14-14b(16)r14-12-11-12~-12-11-------11b(12)r11------------||
g ||-13~---------------------------------13-11------------13---------||
D ||-----------------------------------------------------------------||
A ||-----------------------------------------------------------------||
E ||-----------------------------------------------------------------||

(0:10)
e ||-----------------------------------------------------------------||
b ||---11-12-11h12p11h12p11--11-12--14b(16)r14--11b(12)r11-----------||
g ||-13--------------------13-----------------------------13~-------||
D ||-----------------------------------------------------------------||
A ||-----------------------------------------------------------------||
E ||-----------------------------------------------------------------||

(0:20)
e ||-----------------------------------------------------------------||
b ||-----------------------------------------------------------------||
g ||-/13-13-14-14/16-16-16-16-14-13-13--13-13-/1411-----------------||
D ||-------------------------------------------------12--------------||
A ||---------------------------------------------------14------------||
E ||-----------------------------------------------------------------||

(0:27)
e ||-----------------------------------------------------------------||
b ||-----------------------------------------------------------------||
g ||------------------13-13-11----13-b(14)-r13p-11~-----------------||
D ||-/11-11-12-14-14-----------14------------------------------------||
A ||-----------------------------------------------------------------||
E ||-----------------------------------------------------------------||

(0:35)
e ||-------12-14-b(16)~-r(14)-12--14-12h14p1211---------------------||
b ||----14---------------------------------------12-/12b(14)~-------||
g ||-/13-------------------------------------------------------------||
D ||-----------------------------------------------------------------||
A ||-----------------------------------------------------------------||
E ||-----------------------------------------------------------------||

(0:42)
e ||-----------12-14-14b(16)r14-11---------------------------------------||
b ||-12b(14)-14-------------------12b(14)---11-12-11h12p11h12p11---------||
g ||--------------------------------------13--------------------13-11/13~||
D ||---------------------------------------------------------------------||
A ||---------------------------------------------------------------------||
E ||---------------------------------------------------------------------||

(0:50)
e ||-------------------------------------- p.h......-----------------||
b ||-12-14-14b(16)r14-12-11-12~-12-11------11b(12)r11----------------||
g ||---------------------------------13-11------------13-------------||
D ||-----------------------------------------------------------------||
A ||-----------------------------------------------------------------||
E ||-----------------------------------------------------------------||

(0:58)
e ||-----------------------------------------------------------------||
b ||---11-12-11h12p11h12p11--11-12--14b(16)r14--11b(12)r11-----------||
g ||-13--------------------13-----------------------------13~-------||
D ||-----------------------------------------------------------------||
A ||-----------------------------------------------------------------||
E ||-----------------------------------------------------------------||

(1:08)
e ||---------------11-11b(12)-r11------------------------------------||
b ||-------------14--------------14-12--12-10h12p109----------------||
g ||-11b(13)-(13)-------------------------------------11------------||
D ||-----------------------------------------------------------------||
A ||-----------------------------------------------------------------||
E ||-----------------------------------------------------------------||

(1:15)
e ||---------------------------------------------------------p.h.----||
b ||-----------------------------------------------12b(14)r12-12-----||
g ||-11b(13)-(13)~-(13)r11p9h11-11b(13)~--11-13-14-------------------||
D ||-----------------------------------------------------------------||
A ||-----------------------------------------------------------------||
E ||-----------------------------------------------------------------||

(1:22)
e ||---11-12--11---11-12/14-14b(16)r14b(16)~-16-17-17b(19)~-(19)r17-16-14||
b ||-14---------14-------------------------------------------------------||
g ||---------------------------------------------------------------------||
D ||---------------------------------------------------------------------||
A ||---------------------------------------------------------------------||
E ||---------------------------------------------------------------------||

(1:29)
e ||-------11-12-b(14)~-11b(12)r11------18-19-18h19p18h19p18-------------||
b ||-----14-----------------------14--21--------------------21-19b(21)~--||
g ||-14~-----------------------------------------------------------------||
D ||-p.h.----------------------------------------------------------------||
A ||---------------------------------------------------------------------||
E ||---------------------------------------------------------------------||

(CHORUS)(1:38)
e ||----------------------------------------p.h.......---------------||
b ||-12-14-14b(16)r14-12-11-12~-12-11-------11b(12)r11---------------||
g ||----------------------------------13-11------------13------------||
D ||-----------------------------------------------------------------||
A ||-----------------------------------------------------------------||
E ||-----------------------------------------------------------------||

(1:46)
e ||-----------------------------------------------------------------||
b ||---11-12-11h12p11h12p11--11-12--14b(16)r14--11b(12)r11-----------||
g ||-13--------------------13-----------------------------13---------||
D ||-----------------------------------------------------------------||
A ||-----------------------------------------------------------------||
E ||-----------------------------------------------------------------||

(1:53)
e ||-----------------------------------------------------------------||
b ||-12-14-14b(16)r14-12-11-12~--12-11-12-14--11b(12)r11-------------||
g ||-----------------------------------------------------13----------||
D ||-----------------------------------------------------------------||
A ||-----------------------------------------------------------------||
E ||-----------------------------------------------------------------||

(2:00)
e ||-12-14-14b(16)~-r14-14--12h14p12p11------p.h........-14b(16)~----||
b ||------------------------------------14----11b(12)r12-------------||
g ||-----------------------------------------------------------------||
D ||-----------------------------------------------------------------||
A ||-----------------------------------------------------------------||
E ||-----------------------------------------------------------------||
(/CHORUS)

(2:09)
e ||-16-18-19~-19-18h19h18p16-----------------14-14b(16)~------------||
b ||--------------------------19--14b(16)-(16)-----------------------||
g ||-----------------------------------------------------------------||
D ||-----------------------------------------------------------------||
A ||-----------------------------------------------------------------||
E ||-----------------------------------------------------------------||

(2:16)
e ||--------------14-16-12~-12h14b(16)-r14p12h14-12-11-12-11h12p11h12p11-||
b ||-14b(16)-(16)--------------------------------------------------------||
g ||---------------------------------------------------------------------||
D ||---------------------------------------------------------------------||
A ||---------------------------------------------------------------------||
E ||---------------------------------------------------------------------||

(2:21)
e ||------p.h.-----------------19b(21)r19-16-18-19-19b(21)-(21)r19-17-16-||
b ||-14-12-14--14-12-h14p12p11-------------------------------------------||
g ||---------------------------------------------------------------------||
D ||---------------------------------------------------------------------||
A ||---------------------------------------------------------------------||
E ||---------------------------------------------------------------------||

(2:30)
e ||-12-14-14b(16)~--19b(21)-(21)-(21)-(21)-(21)r19-19---------------||
b ||-----------------------------------------------------------------||
g ||-----------------------------------------------------------------||
D ||-----------------------------------------------------------------||
A ||-----------------------------------------------------------------||
E ||-----------------------------------------------------------------||

(2:34)
e ||-21b(23)-(23)-(23)-(23)-(23)r21b(23)r21-18~----------------------||
b ||-----------------------------------------------------------------||
g ||-----------------------------------------------------------------||
D ||-----------------------------------------------------------------||
A ||-----------------------------------------------------------------||
E ||-----------------------------------------------------------------||

(2:37)
e ||-----------------------------------------------------------------||
b ||------------------------12-14-14/16-14h16p14h16p14-12-11-12------||
g ||---------------------/13-----------------------------------------||
D ||-11-14b(16)r14-11/13~--------------------------------------------||
A ||-----------------------------------------------------------------||
E ||-----------------------------------------------------------------||

(2:44)
e ||-------------------------------------------------------------p.h.--||
b ||-12-11h12----11-12-11h12p11------11-12-11h12p11h12p11--11-12--14~-||
g ||---------11----------------13--13--------------------13------------||
D ||-------------------------------------------------------------------||
A ||-------------------------------------------------------------------||
E ||-------------------------------------------------------------------||

Now just play the chorus twice playing every note 7 frets higher.
So you would start like this:
e ||----13-14-16b(18)r16-14-13-14------------------------------------||
b ||-16~-------------------------------------------------------------||
g ||-----------------------------------------------------------------||
D ||-----------------------------------------------------------------||
A ||-----------------------------------------------------------------||
E ||-----------------------------------------------------------------||

Клип HammerFall - In Memoriam

Текст песни In Memoriam

Тексты песен HammerFall являются собственностью правообладателей и лейбла Nuclear Blast. Контент «In Memoriam» представлен на нашем ресурсе исключительно для ознакомления и личного пользования.
All lyrics are property and copyright of their owners. All lyrics provided for educational purposes and personal use only.

Рекомендуем
Постер HammerFall - Heeding The Call
HammerFall - Heeding The Call
Эпический метал / 29-09-2021
{views}
Постер HammerFall - Ravenlord
HammerFall - Ravenlord
Эпический метал / 29-09-2021
{views}
Постер HammerFall - Stronger Than All
HammerFall - Stronger Than All
Эпический метал / 29-09-2021
{views}
Постер HammerFall - Renegade
HammerFall - Renegade
Эпический метал / 29-09-2021
{views}
Постер HammerFall - Let The Hammer Fall
HammerFall - Let The Hammer Fall
Эпический метал / 29-09-2021
{views}
Комментарии (0)
Добавить
Кликните на изображение чтобы обновить код, если он неразборчив