Text-Pesni.ws » Метал » Anathema - Temporary peace
Постер Anathema - Temporary peace
0 0 00
Слушать

Текст песни Temporary peace
Anathema

!
  • Артист: Anathema
  • Название: Temporary peace
  • Лейбл: Kscope
  • Просмотров: 23
  • Качество: 320 kbps
  • Добавлено: 6-05-2021

Слова песни Anathema - Temporary peace

Перевод
Riff1
electric clean. little change at 1:40
-----------------0----------------------------------------------
---1-----------------------1------------------------------------
-------2-----3-----------------2-----3---0---3------------------
-0---0-----0---0---------0---0-----0---0---0---0----------------
----------------------------------------------------------------
----------------------------------------------------------------
after beginning section of bass, just play chords:
-0------1-------------------------------------------------------
-1------3-------------------------------------------------------
-2------3-------------------------------------------------------
-0------0-------------------------------------------------------
----------------------------------------------------------------
----------------------------------------------------------------
2:28 just chords
electric:arpegio
--5-----5-----5----6----------------------------------------------
--6-----6-----5----6----------------------------------------------
--5-----7-----5----7----------------------------------------------
--7-----7-----7----8-----etc.-------------------------------------
--8-----5-----7----8----------------------------------------------
--------------5----6----------------------------------------------
ending: some interlude...

-

Notation:
h Hammer on
p Pull off
/ Slide up
Slide down

List of chords used in the song

Main riff
Riff 1 Riff 2
While Vinnie sings these are the chords:
R1 R2 R1 R2
R1 R2 R1 R2
R1 R2 R1 R2
R1 R2 R1 R2
(When drums begins to play, play three times the main riff and the fourth
the riff is)
(While first guitar stills playing the main riff a second acoustic guitar
plays these chords)
While Vinnie sings these are the chords:
R1 R2 R1 R2
R1 R2 R1 R2
R1 R2 R1 R2
R1 R2 R1 R2
(The first guitar plays)


The final acoustic guitar plays

Аккорды Anathema - Temporary peace

tunning: [D G C F A d]
Riff1
electric clean. little change at 1:40
-----------------0----------------------------------------------
---1-----------------------1------------------------------------
-------2-----3-----------------2-----3---0---3------------------
-0---0-----0---0---------0---0-----0---0---0---0----------------
----------------------------------------------------------------
----------------------------------------------------------------
after beginning section of bass, just play chords:
D9 A#
-0------1-------------------------------------------------------
-1------3-------------------------------------------------------
-2------3-------------------------------------------------------
-0------0-------------------------------------------------------
----------------------------------------------------------------
----------------------------------------------------------------
2:28 just chords
acoustic plays chords: F Dmi Ami A# Dmi F Ami A# ...(F and Dmi are changing)
electric:arpegio
--5-----5-----5----6----------------------------------------------
--6-----6-----5----6----------------------------------------------
--5-----7-----5----7----------------------------------------------
--7-----7-----7----8-----etc.-------------------------------------
--8-----5-----7----8----------------------------------------------
--------------5----6----------------------------------------------
ending: some interlude...

-

Notation:
h Hammer on
p Pull off
/ Slide up
Slide down
(x) Bending

List of chords used in the song
[E-3--3---3--4-
B-4--3---3--4-
G-5--3---3--5-
D-5--1---5--6-
A-3------5--6-
E--------3--4-]
Cm D#7m Gm G#

Main riff
Clean guitar
[E-------------------------------------------
B-------------------------------3-----------
G-----3-------------------------------------
D------------5-----------6------------------
A--3-----3-----------3-------3--------------
E-------------------------------------------]
Riff 1 Riff 2
While Vinnie sings these are the chords:
R1 R2 R1 R2
R1 R2 R1 R2
R1 R2 R1 R2
R1 R2 R1 R2
(When drums begins to play, play three times the main riff and the fourth
the riff is)
[E--------------------------------------
B--------------------------------------
G-----3--------------------------------
D------------5----------6----3---6---5-
A--3-----3----------3------3-----------
E--------------------------------------]
(While first guitar stills playing the main riff a second acoustic guitar
plays these chords)
[E--3--3--3--3--3--3--3--3--3-----3--3--3--3--3--3--3--3--3--3---
B--3--3--3--3--3--3--3--3--3-----3--3--3--3--3--3--3--3--3--3---
G--5--5--5--5--5--5--5--5--5-----5--5--5--5--5--5--5--5--5--5---
D--5--5--5--5--5--5--5--5--5-----6--6--6--6--6--6--6--6--6--6---
A--3--3--3--3--3--3--3--3--3-----3--3--3--3--3--3--3--3--3--3---
E---------------------------------------------------------------]
While Vinnie sings these are the chords:
R1 R2 R1 R2
R1 R2 R1 R2
R1 R2 R1 R2
R1 R2 R1 R2
(The first guitar plays)
[E-----------3---------------3---------------3-------------4--
B-----------4-------------3-----------------3-------------4--
G--------5--------------3-------------------3-------------5--
D-----5-------------1--------------------5-------------6-----
A--3----------------------------------5-------------6--------
E----------------------------------3-------------4-----------]
Cm D#7M Gm G#
You can play D#7M like this if you prefer.
[E---------------
B-----------8---
G---------7-----
D-------8-------
A-----6---------
E---------------]
(The second guitar plays Cm D#7M Gm G# chords while Vinnie is singing)
Cm D#7m Gm G#
The songs ends --> G# Cm G#
And doing some stuff like these with 310 ms delay:
[E---------------
B---3h4---3h4---
G-------5-----5-
D---------------
A---------------
E---------------

E---------------
B---4p3---4p3---
G-------3-----3-
D---------------
A---------------
E---------------

E----------------------------------------------
B----------------------------------------------
G----------------------------------------------
D--5--5--5--5--5--5/6--6/8-8/10-108-86--65--
A----------------------------------------------
E----------------------------------------------]
The final acoustic guitar plays
[E------------------------------
B----------3----------------3--
G-----3---------------3--------
D--------5---------------6-----
A--3---------------3-----------
E------------------------------]

Клип Anathema - Temporary peace

Текст песни Temporary peace

Тексты песен Anathema являются собственностью правообладателей и лейбла Kscope. Контент «Temporary peace» представлен на нашем ресурсе исключительно для ознакомления и личного пользования.
All lyrics are property and copyright of their owners. All lyrics provided for educational purposes and personal use only.

Рекомендуем
Постер Anathema - Fragile Dreams
Anathema - Fragile Dreams
Метал / 22-04-2021
{views}
Постер Anathema - Empty
Anathema - Empty
Метал / 21-04-2021
{views}
Постер Anathema - Make It Right (F.F.S.)
Anathema - Make It Right (F.F.S.)
Метал / 20-04-2021
{views}
Постер Anathema - Destiny
Anathema - Destiny
Метал / 21-04-2021
{views}
Постер Anathema - Shroud Of False
Anathema - Shroud Of False
Метал / 14-04-2021
{views}
Комментарии (0)
Добавить
Кликните на изображение чтобы обновить код, если он неразборчив