Text-Pesni.ws » Лёгкая музыка » Нью-эйдж » Imagine Dragons - Pantomime
Постер Imagine Dragons - Pantomime
0 0 00
Слушать

Текст песни Pantomime
Imagine Dragons

!
  • Артист: Imagine Dragons
  • Название: Pantomime
  • Лейбл: Zensual
  • Просмотров: 7
  • Качество: 320 kbps
  • Добавлено: 22-11-2021

Слова песни Imagine Dragons - Pantomime

Перевод
INTRO

(strums)

Synth



(same as above)






Intro

Verse


(has chorus chords but also these ones)





(add)
(each played a # of times)

Intro

Verse

Outro Solo



----------------14-1611----------14----------------|
-12h14h16-14r12----------12h14h16----16-14-12-14-12-|
----------------------------------------------------|
----------------------------------------------------|
----------------------------------------------------|
----------------------------------------------------|

Аккорды Imagine Dragons - Pantomime

INTRO

Electric 2
(strums)
E|-------------|
B|-12-11-12-10-|
G|-9--9--9--10-|
D|-------------|
A|-------------|
E|-------------|

Electric 1
Synth
E|-------------|
B|----------16-|
G|-13-16-18----|
D|-------------|
A|-------------|
E|-------------|

Electric 3
Bass
E|------------------|
B|------------------|
G|------------------|
D|------------------|
A|------------------|
E|-4-44-4-44-2-22-2-|

VERSE

Electric 2
(same as above)

Electric 1
E|--------------|
B|-1611-1297-|
G|--------------|
D|--------------|
A|--------------|
E|--------------|

Electric 3
Bass
E|----------------------------------|
B|----------------------------------|
G|----------------------------------|
D|----------------------------------| x2
A|----------------------------------|
E|-0-00-x4-4-44-4-44-4h6/7-2-22h4/6-|

Chorus

Electric 2
E|-7-7-11-4-|
B|-8-9-12-5-|
G|-7---11-4-|
D|----------|
A|----------|
E|----------|

Electric 1 does some picking with these chords

Intro

Verse

Chorus

Bridge
(has chorus chords but also these ones)

Electric 2
Mild Distortion

E|---------|
B|-----6---|
G|-----6-9-|
D|-9-4-6-9-|
A|-9-4-4-7-|
E|-7-2-----|

Chorus

Bridge

Chorus
(add)
Electric 3
(each played a # of times)
E|-----------|
B|-12-10-9-7-|
G|-----------|
D|-----------|
A|-----------|
E|-----------|

Intro

Verse

Outro Solo

Electric 1

E|---------------------------------------14-------|
B|-12h14h16-14r12----12/9-12h14h16-14r12----14r12-|
G|----------------15------------------------------|
D|------------------------------------------------|
A|------------------------------------------------|
E|------------------------------------------------|

----------------14-1611----------14----------------|
-12h14h16-14r12----------12h14h16----16-14-12-14-12-|
----------------------------------------------------|
----------------------------------------------------|
----------------------------------------------------|
----------------------------------------------------|

Клип Imagine Dragons - Pantomime

Текст песни Pantomime

Тексты песен Imagine Dragons являются собственностью правообладателей и лейбла Zensual. Контент «Pantomime» представлен на нашем ресурсе исключительно для ознакомления и личного пользования.
All lyrics are property and copyright of their owners. All lyrics provided for educational purposes and personal use only.

Рекомендуем
Постер Enya - Caribbean Blue
Enya - Caribbean Blue
Нью-эйдж / 29-10-2021
{views}
Комментарии (0)
Добавить
Кликните на изображение чтобы обновить код, если он неразборчив