Text-Pesni.ws » Кантри » Carrie Underwood - End Up With You
Постер Carrie Underwood - End Up With You
0 0 00
Слушать

Текст песни End Up With You
Carrie Underwood

!
  • Артист: Carrie Underwood
  • Название: End Up With You
  • Лейбл: A Capitol Records Nashville Release;
  • Просмотров: 27
  • Качество: 320 kbps
  • Добавлено: 8-05-2021

Слова песни Carrie Underwood - End Up With You

Перевод
[Intro]

e|----------------------------------------------------------------------------||----------------------------------------------------------------------------||------4------2-----0--------------------------------------------------------||----------0-----2-----------------------------------------------------------||----3-----------------------------------------------------------------------||----------------------------------------------------------------------------|



[Verse 1]

I don't really care 'bout making any plans...
e|----------------------------------------------------------------------------||----------------------------------------------------------------------------||------4------2-----0--------------------------------------------------------||----------0-----2-----------------------------------------------------------||----3-----------------------------------------------------------------------||----------------------------------------------------------------------------|

Leave it up in the air, give it up to chance...
e|----------------------------------------------------------------------------||----------------------------------------------------------------------------||------4------2-----0--------------------------------------------------------||----------0-----2-----------------------------------------------------------||----3-----------------------------------------------------------------------||----------------------------------------------------------------------------|

Seein' where it goes, seein' where it lands...
e|----------------------------------------------------------------------------||----------------------------------------------------------------------------||------4------2-----0--------------------------------------------------------||----------0-----2-----------------------------------------------------------||----3-----------------------------------------------------------------------||----------------------------------------------------------------------------|

I just wannao as fast as we can...
e|----------------------------------------------------------------------------||----------------------------------------------------------------------------||------4------2-----0--------------------------------------------------------||----------0-----2-----------------------------------------------------------||----3-----------------------------------------------------------------------||----------------------------------------------------------------------------|


[Chorus]
nd we could end up broke down on some back road
Lovin' in the back seat to the radio
Wouldn't be the worst scenario
'Cause all I wannao is end up with you
et home and we're locked out
Middle of the backyard laying down
Last thing that I'd worry 'bout
'Cause all I wannao is end up with you

Yeah, all I wannao is end up with you


[Verse 2]

To the end of the world if you wanted to...
e|----------------------------------------------------------------------------||----------------------------------------------------------------------------||------4------2-----0--------------------------------------------------------||----------0-----2-----------------------------------------------------------||----3-----------------------------------------------------------------------||----------------------------------------------------------------------------|

Yeah, 'cause you could light up the dark side of the moon...
e|----------------------------------------------------------------------------||----------------------------------------------------------------------------||------4------2-----0--------------------------------------------------------||----------0-----2-----------------------------------------------------------||----3-----------------------------------------------------------------------||----------------------------------------------------------------------------|
on't leave it up to me, I'll leave it up to you...
e|----------------------------------------------------------------------------||----------------------------------------------------------------------------||------4------2-----0--------------------------------------------------------||----------0-----2-----------------------------------------------------------||----3-----------------------------------------------------------------------||----------------------------------------------------------------------------|

'Cause I just want one thing when the night is through, yeah...
e|----------------------------------------------------------------------------||----------------------------------------------------------------------------||------4------2-----0--------------------------------------------------------||----------0-----2-----------------------------------------------------------||----3-----------------------------------------------------------------------||----------------------------------------------------------------------------|


[Chorus]
We could end up broke down on some back road
Lovin' in the back seat to the radio
Wouldn't be the worst scenario
'Cause all I wannao is end up with you
et home and we're locked out
Middle of the backyard laying down
Last thing that I'd worry 'bout

'Cause all I wannao is end up with you

Yeah, all I wannao is end up with you
ll I wannao is end up with you
ll I wannao is end up with you


[Bridge]

We could end up broke down on some back road...
e|----------------------------------------------------------------------------||----------------------------------------------------------------------------||------4------2-----0--------------------------------------------------------||----------0-----2-----------------------------------------------------------||----3-----------------------------------------------------------------------||----------------------------------------------------------------------------|

'Cause all I wannao is end up with you
et home and we're locked out
Middle of the backyard laying down
Last thing that I'd worry 'bout

'Cause all I wannao is end up with you
ll I wannao is end up with you
ll I wannao is end up with you
ll I wannao is end up with you


[Outro]
nd up with you, end up with you
nd up with you, end up with you
ll I wannao is end up with you
nd up with you, end up with you
nd up with you, end up with you
ll I wannao is end up with you
nd up with you, end up with you
nd up with you, end up with you
ll I wannao is end up with you...
nd up with you, end up with you...
e|----------------------------------------------------------------------------||----------------------------------------------------------------------------||------4------2-----0--------------------------------------------------------||----------0-----2-----------------------------------------------------------||----3-----------------------------------------------------------------------||----------------------------------------------------------------------------|
nd up with you, end up with you...
e|----------------------------------------------------------------------------||----------------------------------------------------------------------------||------4------2-----0--------------------------------------------------------||----------0-----2-----------------------------------------------------------||----3-----------------------------------------------------------------------||----------------------------------------------------------------------------|
ll I wannao is end up with you, you, you, you
e|----------------------------------------------------------------------------||----------------------------------------------------------------------------||------4------2-----0--------------------------------------------------------||----------0-----2-----------------------------------------------------------||----3-----------------------------------------------------------------------||----------------------------------------------------------------------------|

Аккорды Carrie Underwood - End Up With You

[Intro]

e|----------------------------------------------------------------------------|
B|----------------------------------------------------------------------------|
G|------4------2-----0--------------------------------------------------------|
D|----------0-----2-----------------------------------------------------------|
A|----3-----------------------------------------------------------------------|
E|----------------------------------------------------------------------------|



[Verse 1]

I don't really care 'bout making any plans...
e|----------------------------------------------------------------------------|
B|----------------------------------------------------------------------------|
G|------4------2-----0--------------------------------------------------------|
D|----------0-----2-----------------------------------------------------------|
A|----3-----------------------------------------------------------------------|
E|----------------------------------------------------------------------------|

Leave it up in the air, give it up to chance...
e|----------------------------------------------------------------------------|
B|----------------------------------------------------------------------------|
G|------4------2-----0--------------------------------------------------------|
D|----------0-----2-----------------------------------------------------------|
A|----3-----------------------------------------------------------------------|
E|----------------------------------------------------------------------------|

Seein' where it goes, seein' where it lands...
e|----------------------------------------------------------------------------|
B|----------------------------------------------------------------------------|
G|------4------2-----0--------------------------------------------------------|
D|----------0-----2-----------------------------------------------------------|
A|----3-----------------------------------------------------------------------|
E|----------------------------------------------------------------------------|

I just wanna Go as fast as we can...
e|----------------------------------------------------------------------------|
B|----------------------------------------------------------------------------|
G|------4------2-----0--------------------------------------------------------|
D|----------0-----2-----------------------------------------------------------|
A|----3-----------------------------------------------------------------------|
E|----------------------------------------------------------------------------|


[Chorus]
Cadd9 G
And we could end up broke down on some back road
Em D
Lovin' in the back seat to the radio
Cadd9 G
Wouldn't be the worst scenario
D
'Cause all I wanna Do is end up with you
Cadd9 G
Get home and we're locked out
Em D
Middle of the backyard laying down
Cadd9 G
Last thing that I'd worry 'bout
D
'Cause all I wanna Do is end up with you

Yeah, all I wanna Do is end up with you


[Verse 2]

To the end of the world if you wanted to...
e|----------------------------------------------------------------------------|
B|----------------------------------------------------------------------------|
G|------4------2-----0--------------------------------------------------------|
D|----------0-----2-----------------------------------------------------------|
A|----3-----------------------------------------------------------------------|
E|----------------------------------------------------------------------------|

Yeah, 'cause you could light up the dark side of the moon...
e|----------------------------------------------------------------------------|
B|----------------------------------------------------------------------------|
G|------4------2-----0--------------------------------------------------------|
D|----------0-----2-----------------------------------------------------------|
A|----3-----------------------------------------------------------------------|
E|----------------------------------------------------------------------------|

Don't leave it up to me, I'll leave it up to you...
e|----------------------------------------------------------------------------|
B|----------------------------------------------------------------------------|
G|------4------2-----0--------------------------------------------------------|
D|----------0-----2-----------------------------------------------------------|
A|----3-----------------------------------------------------------------------|
E|----------------------------------------------------------------------------|

'Cause I just want one thing when the night is through, yeah...
e|----------------------------------------------------------------------------|
B|----------------------------------------------------------------------------|
G|------4------2-----0--------------------------------------------------------|
D|----------0-----2-----------------------------------------------------------|
A|----3-----------------------------------------------------------------------|
E|----------------------------------------------------------------------------|


[Chorus]
Cadd9 G
We could end up broke down on some back road
Em D
Lovin' in the back seat to the radio
Cadd9 G
Wouldn't be the worst scenario
D
'Cause all I wanna Do is end up with you
Cadd9 G
Get home and we're locked out
Em D
Middle of the backyard laying down
Cadd9 G
Last thing that I'd worry 'bout
D Cadd9 G
'Cause all I wanna Do is end up with you
Em D Cadd9 G
Yeah, all I wanna Do is end up with you
Em D Cadd9 G
All I wanna Do is end up with you
Em D
All I wanna Do is end up with you


[Bridge]

We could end up broke down on some back road...
e|----------------------------------------------------------------------------|
B|----------------------------------------------------------------------------|
G|------4------2-----0--------------------------------------------------------|
D|----------0-----2-----------------------------------------------------------|
A|----3-----------------------------------------------------------------------|
E|----------------------------------------------------------------------------|

'Cause all I wanna Do is end up with you
Cadd9 G
Get home and we're locked out
Em D
Middle of the backyard laying down
Cadd9 G
Last thing that I'd worry 'bout
Em D Cadd9 G
'Cause all I wanna Do is end up with you
Em D Cadd9 G
All I wanna Do is end up with you
Em D Cadd9 G
All I wanna Do is end up with you
Em D Cadd9 G
All I wanna Do is end up with you


[Outro]
Cadd9 G Em D
End up with you, end up with you
Cadd9 G Em D
End up with you, end up with you
Cadd9 G Em D
All I wanna Do is end up with you
Cadd9 G Em D
End up with you, end up with you
Cadd9 G Em D
End up with you, end up with you
Cadd9 G Em D
All I wanna Do is end up with you
Cadd9 G Em D
End up with you, end up with you
Cadd9 G Em D
End up with you, end up with you
Cadd9 G Em D
All I wanna Do is end up with you...

End up with you, end up with you...
e|----------------------------------------------------------------------------|
B|----------------------------------------------------------------------------|
G|------4------2-----0--------------------------------------------------------|
D|----------0-----2-----------------------------------------------------------|
A|----3-----------------------------------------------------------------------|
E|----------------------------------------------------------------------------|

End up with you, end up with you...
e|----------------------------------------------------------------------------|
B|----------------------------------------------------------------------------|
G|------4------2-----0--------------------------------------------------------|
D|----------0-----2-----------------------------------------------------------|
A|----3-----------------------------------------------------------------------|
E|----------------------------------------------------------------------------|

All I wanna Do is end up with you, you, you, you
e|----------------------------------------------------------------------------|
B|----------------------------------------------------------------------------|
G|------4------2-----0--------------------------------------------------------|
D|----------0-----2-----------------------------------------------------------|
A|----3-----------------------------------------------------------------------|
E|----------------------------------------------------------------------------|

Клип Carrie Underwood - End Up With You

Текст песни End Up With You

Тексты песен Carrie Underwood являются собственностью правообладателей и лейбла A Capitol Records Nashville Release;. Контент «End Up With You» представлен на нашем ресурсе исключительно для ознакомления и личного пользования.
All lyrics are property and copyright of their owners. All lyrics provided for educational purposes and personal use only.

Рекомендуем
Постер Carrie Underwood - Flat On The Floor
Carrie Underwood - Flat On The Floor
Кантри / 2-03-2021
{views}
Постер Carrie Underwood - Dont Forget To Remember Me
Carrie Underwood - Dont Forget To Remember Me
Кантри / 2-03-2021
{views}
Постер Carrie Underwood - Forever Changed
Carrie Underwood - Forever Changed
Кантри / 2-03-2021
{views}
Постер Carrie Underwood - Do You Think About Me
Carrie Underwood - Do You Think About Me
Кантри / 2-03-2021
{views}
Постер Carrie Underwood - Nothing But The Blood Of Jesus
Carrie Underwood - Nothing But The Blood Of Jesus
Кантри / 13-04-2021
{views}
Комментарии (0)
Добавить
Кликните на изображение чтобы обновить код, если он неразборчив