Text-Pesni.ws » Электроника » Lee Tonya - Тебе
Постер Lee Tonya - Тебе
0 0 00
Слушать

Текст песни Тебе
Lee Tonya

!
  • Артист: Lee Tonya
  • Название: Тебе
  • Лейбл: Patrick Lee
  • Просмотров: 7
  • Качество: 320 kbps
  • Добавлено: 22-11-2021

Слова песни Lee Tonya - Тебе

Перевод
Вступление - 2 раза:




H|-6---6-5-6--6-5-6--6-5-6--5-6---8-----5-|- 2-ая струна



Я испарюсь, убегу, улечу, словно птица,
Буду к тебе приходить, я тебе буду сниться
Будешь меня вспоминать ты лишь ласковым словом,
Только с тобою мы больше не встретимся снова

Припев:

Опадёт листва, и выпадет снег,
Грустные слова, тебя рядом нет
Опадёт листва, её смоют дожди -
Это всё слова, а ты меня жди

Проигрыш - 2 раза:




H|-6---6-5-6--6-5-6--6-5-6--5-6---8-----5-|- 2-ая струна



Ты не пытайся создать меня вновь - бесполезно,
Я не смогу жить с тобой, мне в реальности тесно
Ты будешь плакать, а, может, отыщешь другую,
Только ты помни, что где-то я всё ж существую

Припев.

Окончание - 4 раза:




H|-6---6-5-6--6-5-6--6-5-6--5-6---8-----5-|- 2-ая струна

Аккорды Lee Tonya - Тебе

Вступление - 2 раза:


Dm Gm Am7

E|------------------------------5---------|- 1 ая струна

H|-6---6-5-6--6-5-6--6-5-6--5-6---8-----5-|- 2-ая струна

G|------------------------------------7---|- 3-я струна


Dm Gm Am7
Я испарюсь, убегу, улечу, словно птица,
Dm Gm Am7
Буду к тебе приходить, я тебе буду сниться
Dm Gm Am7
Будешь меня вспоминать ты лишь ласковым словом,
Dm Gm Am7
Только с тобою мы больше не встретимся снова

Припев:

Gm Am7 Dm
Опадёт листва, и выпадет снег,
Gm Am7 Dm
Грустные слова, тебя рядом нет
Gm Am7 Dm
Опадёт листва, её смоют дожди -
Gm Am7 Dm
Это всё слова, а ты меня жди

Проигрыш - 2 раза:


Dm Gm Am7

E|------------------------------5---------|- 1 ая струна

H|-6---6-5-6--6-5-6--6-5-6--5-6---8-----5-|- 2-ая струна

G|------------------------------------7---|- 3-я струна


Ты не пытайся создать меня вновь - бесполезно,
Я не смогу жить с тобой, мне в реальности тесно
Ты будешь плакать, а, может, отыщешь другую,
Только ты помни, что где-то я всё ж существую

Припев.

Окончание - 4 раза:


Dm Gm Am7

E|------------------------------5---------|- 1 ая струна

H|-6---6-5-6--6-5-6--6-5-6--5-6---8-----5-|- 2-ая струна

G|------------------------------------7---|- 3-я струна

Клип Lee Tonya - Тебе

Текст песни Тебе

Тексты песен Lee Tonya являются собственностью правообладателей и лейбла Patrick Lee. Контент «Тебе» представлен на нашем ресурсе исключительно для ознакомления и личного пользования.
All lyrics are property and copyright of their owners. All lyrics provided for educational purposes and personal use only.

Рекомендуем
Постер TMNV - Танцуй Виталя
TMNV - Танцуй Виталя
Электроника / 24-02-2021
{views}
Постер Фрик Пати - Двадцать два
Фрик Пати - Двадцать два
Электроника / 14-03-2021
{views}
Постер GSPD - Переходный возраст
GSPD - Переходный возраст
Электроника / 19-10-2021
{views}
Комментарии (0)
Добавить
Кликните на изображение чтобы обновить код, если он неразборчив