Text-Pesni.ws » Электроника » Garbage - Dumb
Постер Garbage - Dumb
0 0 00
Слушать

Текст песни Dumb
Garbage

!
  • Артист: Garbage
  • Название: Dumb
  • Лейбл: Dj IP
  • Просмотров: 26
  • Качество: 320 kbps
  • Добавлено: 12-05-2021

Слова песни Garbage - Dumb

Перевод
|-------------------------------|
|-14-14-13-13-11-11-------11-11-|
|-------------------12-12-------|
|-------------------------------|
|-------------------------------|
|-------------------------------|
pm...........................


build up to prechorus
|-------------------------|
|-------------------------|
|-------------------------|
|-5--5--5--5--5--5--3--3--|
|-5--5--5--5--5--5--3--3--|
|-3--3--3--3--3--3--1--1--|


|----------------|
|----------------|
|-5--8--------5--|
|-5--8--5--3--5--|
|-3--6--5--3--3--|
|-------3--1-----|


|------------------------|
|------------------------|
|-7--5--7--------5-------|
|-7--5--7--7--8--5--(5)--|
|-5--3--5--7--8--3--(5)--|
|----------5--6-----(3)--|


|-------------|
|-------------|
|----3--8--5--|
|-5--3--8--5--|
|-5--1--6--3--|
|-3-----------|


lead
|-----------/15-------/17-------/17-18-17-18-|
|-/15--/15-------/15-------/15---------------|
|--------------------------------------------|
|--------------------------------------------|
|--------------------------------------------|
|--------------------------------------------|


|-/15-------/15-------/17-------/17-18-17-18-|
|------/15-------/15-------/15---------------|
|--------------------------------------------|
|--------------------------------------------|
|--------------------------------------------|
|--------------------------------------------|






|-------------|
|-------------|
|----3--8--5--|
|-5--3--8--5--|
|-5--1--6--3--|
|-3-----------|


1.2.3.5.6.7.9.10.
|-------|
|-------|
|-11-12-|
|-------|
|-------|
|-------|

4.8.
|-------------------|
|-------------------|
|-11-12-14-14b15r14-|
|-------------------|
|-------------------|
|-------------------|

11.
|------|
|------|
|-117-|
|------|
|------|
|------|


|-----------------------------------------------|
|-----------------------------------------------|
|-7--5--7--------5----------5-----------5-------|
|-7--5--7--7--8--5--5----8--5--5--7--8--5--5----|
|-5--3--5--7--8--3--5----8--3--5--7--8--3--5----|
|----------5--6-----3----6-----3--5--6-----3----|


OUTRO - With Verse 2 lead
|-------------------------|
|-------------------------|
|-------------------------|
|-5--5--5--5--5--5--5--5--|
|-5--5--5--5--5--5--5--5--|
|-3--3--3--3--3--3--3--3--|

|---|
|---|
|---|
|-5-|
|-5-|
|-3-|

Аккорды Garbage - Dumb

INTRO/VERSE
|-------------------------------|
|-14-14-13-13-11-11-------11-11-|
|-------------------12-12-------|
|-------------------------------|
|-------------------------------|
|-------------------------------|
pm...........................


build up to prechorus
|-------------------------|
|-------------------------|
|-------------------------|
|-5--5--5--5--5--5--3--3--|
|-5--5--5--5--5--5--3--3--|
|-3--3--3--3--3--3--1--1--|


PRECHORUS
|----------------|
|----------------|
|-5--8--------5--|
|-5--8--5--3--5--|
|-3--6--5--3--3--|
|-------3--1-----|


CHORUS
|------------------------|
|------------------------|
|-7--5--7--------5-------|
|-7--5--7--7--8--5--(5)--|
|-5--3--5--7--8--3--(5)--|
|----------5--6-----(3)--|


VERSE 2
|-------------|
|-------------|
|----3--8--5--|
|-5--3--8--5--|
|-5--1--6--3--|
|-3-----------|


lead
|-----------/15-------/17-------/17-18-17-18-|
|-/15--/15-------/15-------/15---------------|
|--------------------------------------------|
|--------------------------------------------|
|--------------------------------------------|
|--------------------------------------------|


|-/15-------/15-------/17-------/17-18-17-18-|
|------/15-------/15-------/15---------------|
|--------------------------------------------|
|--------------------------------------------|
|--------------------------------------------|
|--------------------------------------------|


PRECHORUS 2 - Same


CHORUS 2 - Same


INTERLUDE
|-------------|
|-------------|
|----3--8--5--|
|-5--3--8--5--|
|-5--1--6--3--|
|-3-----------|


1.2.3.5.6.7.9.10.
|-------|
|-------|
|-11-12-|
|-------|
|-------|
|-------|

4.8.
|-------------------|
|-------------------|
|-11-12-14-14b15r14-|
|-------------------|
|-------------------|
|-------------------|

11.
|------|
|------|
|-117-|
|------|
|------|
|------|


CHORUS 3
|-----------------------------------------------|
|-----------------------------------------------|
|-7--5--7--------5----------5-----------5-------|
|-7--5--7--7--8--5--5----8--5--5--7--8--5--5----|
|-5--3--5--7--8--3--5----8--3--5--7--8--3--5----|
|----------5--6-----3----6-----3--5--6-----3----|


OUTRO - With Verse 2 lead
|-------------------------|
|-------------------------|
|-------------------------|
|-5--5--5--5--5--5--5--5--|
|-5--5--5--5--5--5--5--5--|
|-3--3--3--3--3--3--3--3--|

End on
|---|
|---|
|---|
|-5-|
|-5-|
|-3-|

Клип Garbage - Dumb

Текст песни Dumb

Тексты песен Garbage являются собственностью правообладателей и лейбла Dj IP. Контент «Dumb» представлен на нашем ресурсе исключительно для ознакомления и личного пользования.
All lyrics are property and copyright of their owners. All lyrics provided for educational purposes and personal use only.

Рекомендуем
Постер Stract - Losing Interest
Stract - Losing Interest
Электроника / 16-01-2021
{views}
Постер Garbage - #1 Crush
Garbage - #1 Crush
Электроника / 12-04-2021
{views}
Комментарии (0)
Добавить
Кликните на изображение чтобы обновить код, если он неразборчив