Text-Pesni.ws » Инди » Местная инди-музыка » Мультfильмы - Никогда
Постер Мультfильмы - Никогда
0 0 00
Слушать

Текст песни Никогда
Мультfильмы

!
  • Артист: Мультfильмы
  • Название: Никогда
  • Лейбл: Свет и Тени
  • Просмотров: 9
  • Качество: 320 kbps
  • Добавлено: 21-11-2021

Слова песни Мультfильмы - Никогда

Перевод
Intro:

1|-12-12-12-12-12-12-12-12-15-15-15-15-12-12-12-12-|
2|-12-12-12-12-12-12-12-12-17-17-17-17-12-12-12-12-|

1|-7-7-7-7-7-7-7-7-5-5-5-5-5-5-5-5-|
2|-7-7-7-7-7-7-7-7-7-7-7-7-7-7-7-7-|

Куплет:

1|----------------- -------7-------7-|
2|-------8-------8- -----------------|
3|---9-------9----- ---8-------8-----|
4|-9---9---9---9--- -9---9---9---9---|
5|----------------- -----------------|
6|----------------- -----------------|

1|---------------|
2|-------7-----7-|
3|---5-------5---|
4|-7---7---7-----|
5|---------------|
6|---------------|

Листы цвета восход затекает утро
Пустой механический день связывает руки
Сандал песок восток засыхают губы
Из мягких ладоней водой для тебя я буду

tremolo
1|------------|--7-------|
2|------------|--8--7--5-|
3|------------|----------|
4|------------|----------|
5|--10--9--7--|----------|
6|------------|----------|

(...я никогда не умел...)

Я никогда не умел
Я никогда не уйду
Я никогда не умру
Я всегда буду жить для тебя для тебя

Проигрыш:

1|---------------------|
2|-----------------9-9-|
3|---------------------| x4
4|-8-8-8-8-8-8-8-8-----|
5|-8-8-8-8-8-8-8-8-----|
6|-6-6-6-6-6-6-6-6-----|

Трассы стены звери люди
Мне все это надо это все будет
Двери темные лестницы шифры на входах
И даже то что сложно не так уж важно
И даже больно не так уж страшно
Механический день все равно мне так нужен
Я тебя так люблю

Соло:

1|--------------7-8-10-12-14-15-|
2|-2-3-5-7-8-10-----------------|

Я никогда не умел
Я никогда не уйду
Я никогда не умру
Я всегда буду жить для тебя для тебя

Аккорды Мультfильмы - Никогда

Intro:

1|-12-12-12-12-12-12-12-12-15-15-15-15-12-12-12-12-|
2|-12-12-12-12-12-12-12-12-17-17-17-17-12-12-12-12-|

1|-7-7-7-7-7-7-7-7-5-5-5-5-5-5-5-5-|
2|-7-7-7-7-7-7-7-7-7-7-7-7-7-7-7-7-|

Куплет:

Em B
1|----------------- -------7-------7-|
2|-------8-------8- -----------------|
3|---9-------9----- ---8-------8-----|
4|-9---9---9---9--- -9---9---9---9---|
5|----------------- -----------------|
6|----------------- -----------------|

Am
1|---------------|
2|-------7-----7-|
3|---5-------5---|
4|-7---7---7-----|
5|---------------|
6|---------------|

Em B Em B
Листы цвета восход затекает утро
Em B Em Am
Пустой механический день связывает руки
Em B Em B
Сандал песок восток засыхают губы
Em B Em Am
Из мягких ладоней водой для тебя я буду

tremolo
1|------------|--7-------|
2|------------|--8--7--5-|
3|------------|----------|
4|------------|----------|
5|--10--9--7--|----------|
6|------------|----------|

(...я никогда не умел...)

D
Я никогда не умел
D7 Gm Eb Dm
Я никогда не уйду
A# D
Я никогда не умру
D7 Gm Eb Dm Dm7 A#
Я всегда буду жить для тебя для тебя

Проигрыш:

1|---------------------|
2|-----------------9-9-|
3|---------------------| x4
4|-8-8-8-8-8-8-8-8-----|
5|-8-8-8-8-8-8-8-8-----|
6|-6-6-6-6-6-6-6-6-----|

Трассы стены звери люди
Мне все это надо это все будет
Двери темные лестницы шифры на входах
И даже то что сложно не так уж важно
И даже больно не так уж страшно
Механический день все равно мне так нужен
Я тебя так люблю

Соло:

1|--------------7-8-10-12-14-15-|
2|-2-3-5-7-8-10-----------------|

Я никогда не умел
Я никогда не уйду
Я никогда не умру
Я всегда буду жить для тебя для тебя

Клип Мультfильмы - Никогда

Текст песни Никогда

Тексты песен Мультfильмы являются собственностью правообладателей и лейбла Свет и Тени. Контент «Никогда» представлен на нашем ресурсе исключительно для ознакомления и личного пользования.
All lyrics are property and copyright of their owners. All lyrics provided for educational purposes and personal use only.

Рекомендуем
Постер Мультfильмы - Марс
Мультfильмы - Марс
Местная инди-музыка / 16-03-2021
{views}
Постер Мультfильмы - Марочка
Мультfильмы - Марочка
Местная инди-музыка / 16-03-2021
{views}
Постер Мультfильмы - StereoСигнал
Мультfильмы - StereoСигнал
Местная инди-музыка / 16-03-2021
{views}
Постер Мультfильмы - Ленинградское небо
Мультfильмы - Ленинградское небо
Местная инди-музыка / 16-03-2021
{views}
Постер Мультfильмы - www.нелюблю
Мультfильмы - www.нелюблю
Местная инди-музыка / 16-03-2021
{views}
Комментарии (0)
Добавить
Кликните на изображение чтобы обновить код, если он неразборчив