Text-Pesni.ws » Инди » Arctic Monkeys - One Point Perspective
Постер Arctic Monkeys - One Point Perspective
0 0 00
Слушать

Текст песни One Point Perspective
Arctic Monkeys

!
  • Артист: Arctic Monkeys
  • Название: One Point Perspective
  • Лейбл: Domino Recording Company
  • Просмотров: 25
  • Качество: 320 kbps
  • Добавлено: 6-05-2021

Слова песни Arctic Monkeys - One Point Perspective

Перевод
Dancing in my underpants
I’m gonna run for government
I’m gonna form a covers band an' all (stop)
Back there by the baby grand, did Mr. Winter Wonderland sayDancing in my underpants
I’m gonna run for government
I’m gonna form a covers band an' all (stop)
Back there by the baby grand, did Mr. Winter Wonderland say
«Come 'ere, kid, we really need to talk»?
Bear with me, man, I lost my train of thought
I fantasise, I call it quits, I swim with the economists
And I get to the bottom of it for good
By the time reality hits, the chimes of freedom fell to bits
The shining city on the fritz
They come out of the cracks, thirsty for blood (stop)
Oh, just as the apocalypse finally gets prioritised
And you cry some of the hottest tears you ever cried
Multiplied by five
I suppose a singer must die
«Singsong 'Round the Money Tree»
This stunning documentary that no one else unfortunately saw
Such beautiful photography, it’s worth it for the opening scene
I’ve been driving 'round listening to the score
Or maybe I just imagined it all
I’ve played to quiet rooms like this before
Bear with me, man, I lost my train of thought

Аккорды Arctic Monkeys - One Point Perspective

Arctic Monkeys - One Point Perspective

I put the piano staccato parts in as a guideline for fingerpicking, it seems to make up the basis of the song.
Lyrics are very incorrect in the chorus, will add official ones upon album release!
To simplify chords, transpose -3 and put capo on 3rd fret.

[Intro]

[Piano]

Bb
e|--------------------------------------------------------------------------|
B|--3--3--3--3--3--3--3--3--3--3--3--3--3--3--3--3--3--3--3--3--3--3--3--3--| x2
G|--3--3--3--3--3--3--3--3--3--3--3--3--3--3--3--3--3--3--3--3--3--3--3--3--|
D|--------------------------------------------------------------------------|
A|--------------------------------------------------------------------------|
E|--------------------------------------------------------------------------|


[Verse 1]

[Piano]

Bb B Bb/F Baug Cm
e|--------------------------------------------------1--1--1--1--1--1--1--1--3--3--3--3--3--3--3--3--3--3--3--|
B|--3--3--3--3--3--3--3--3--4--4--4--4--4--4--4--4-----------------------------------------------------------|
G|--3--3--3--3--3--3--3--3--4--4--4--4--4--4--4--4--3--3--3--3--3--3--3--3--4--4--4--4--4--4--4--4--5--5--5--|
D|-----------------------------------------------------------------------------------------------------------|
A|-----------------------------------------------------------------------------------------------------------|
E|-----------------------------------------------------------------------------------------------------------|

Bdim/D Bb Eb Cm
e|--3--3--3--3--3--------------------------------------------------------------------------3--3--3--3--3--3--|
B|-----------------6--6--6--6--6--6--6--6--3--3--3--3--3--3--3--3--4--4--4--4--4--4--4--4--------------------|
G|--5--5--5--5--5--4--4--4--4--4--4--4--4--3--3--3--3--3--3--3--3--3--3--3--3--3--3--3--3--5--5--5--5--5--5--|
D|-----------------------------------------------------------------------------------------------------------|
A|-----------------------------------------------------------------------------------------------------------|
E|-----------------------------------------------------------------------------------------------------------|

Bdim/D Bb
e|--3--3----------------------------------------------------------------------------|
B|--------6--6--6--6--6--6--6--6--3--3--3--3--3--3--3--3--3--3--3--3--3--3--3--3----| x2
G|--5--5--4--4--4--4--4--4--4--4--3--3--3--3--3--3--3--3--3--3--3--3--3--3--3--3----|
D|----------------------------------------------------------------------------------|
A|----------------------------------------------------------------------------------|
E|----------------------------------------------------------------------------------|


Bb B Bb/F Baug
Dancing in my underpants, I'm gonna run for government, I'm gonna form a covers band and all
Cm Bdim/D Bb Eb
And back there by the baby grand, didn't Mr. Winter Wonderland say "come here kid, we really need to talk?"
Cm Bdim/D Bb
Bear with me man, I lost my train of thought.
Bb B Bb/F Baug
I fantasise and call it quits, I swim with the economists and I get to the bottom of it for good
Cm Bdim/D Bb Eb
By the time when the reality hits, the chimes of freedom fall to bits, the shining city on the fritz
Cm Bdim/D Bb
They come out of the cracks thirsty for blood.


[Chorus/Bridge]

[Piano]

Cm Gm Fm Gm
e|--3--3--3--3--3--3--3--3--3--3--3--3--3--3--3--3--------------------------------------3--3--3--3--|
B|--4--4--4--4--4--4--4--4--3--3--3--3--3--3--3--3--6--6--6--6--6--6--6--6--6--6--6--6--3--3--3--3--|
G|--5--5--5--5--5--5--5--5--3--3--3--3--3--3--3--3--5--5--5--5--5--5--5--5--5--5--5--5--3--3--3--3--|
D|--------------------------------------------------3--3--3--3--3--3--3--3--3--3--3--3--------------|
A|--------------------------------------------------------------------------------------------------|
E|--------------------------------------------------------------------------------------------------|
Cm Gm Fm E
e|--3--3--3--3--3--3--3--3--3--3--3--3--3--3--3--3--------------------------------------------------|
B|--4--4--4--4--4--4--4--4--3--3--3--3--3--3--3--3--6--6--6--6--6--6--6--6--5--5--5--5--5--5--5--5--|
G|--5--5--5--5--5--5--5--5--3--3--3--3--3--3--3--3--5--5--5--5--5--5--5--5--4--4--4--4--4--4--4--4--|
D|--------------------------------------------------3--3--3--3--3--3--3--3--2--2--2--2--2--2--2--2--|
A|--------------------------------------------------------------------------------------------------|
E|--------------------------------------------------------------------------------------------------|

E
e|---------------------------|
B|--5--5--5--5--5--5--5--5---|
G|--4--4--4--4--4--4--4--4---|
D|--2--2--2--2--2--2--2--2---|
A|---------------------------|
E|---------------------------|

Cm Gm Fm Gm
Ohh just as the apocalypse finally gets prioritised, and you grew and saw my friends.
Cm Gm Fm
Hardest tears you'll ever cry, multiplied by five
Fm E
I suppose the singer must die.


[Solo]

[Piano]

Bb B Bb/F Baug Cm
e|--------------------------------------------------1--1--1--1--1--1--1--1--3--3--3--3--3--3--3--3--3--3--3--|
B|--3--3--3--3--3--3--3--3--4--4--4--4--4--4--4--4-----------------------------------------------------------|
G|--3--3--3--3--3--3--3--3--4--4--4--4--4--4--4--4--3--3--3--3--3--3--3--3--4--4--4--4--4--4--4--4--5--5--5--|
D|-----------------------------------------------------------------------------------------------------------|
A|-----------------------------------------------------------------------------------------------------------|
E|-----------------------------------------------------------------------------------------------------------|

Bdim/D Bb
e|--3--3--3--3--3--------------------------------------------------------------------------|
B|-----------------6--6--6--6--6--6--6--6--3--3--3--3--3--3--3--3--3--3--3--3--3--3--3--3--|
G|--5--5--5--5--5--4--4--4--4--4--4--4--4--3--3--3--3--3--3--3--3--3--3--3--3--3--3--3--3--|
D|-----------------------------------------------------------------------------------------|
A|-----------------------------------------------------------------------------------------|
E|-----------------------------------------------------------------------------------------|


[Verse 2]

[Piano]

Bb B Bb/F Baug Cm
e|--------------------------------------------------1--1--1--1--1--1--1--1--3--3--3--3--3--3--3--3--3--3--3--|
B|--3--3--3--3--3--3--3--3--4--4--4--4--4--4--4--4-----------------------------------------------------------|
G|--3--3--3--3--3--3--3--3--4--4--4--4--4--4--4--4--3--3--3--3--3--3--3--3--4--4--4--4--4--4--4--4--5--5--5--|
D|-----------------------------------------------------------------------------------------------------------|
A|-----------------------------------------------------------------------------------------------------------|
E|-----------------------------------------------------------------------------------------------------------|

Bdim/D Bb Eb
e|--3--3--3--3--3---------------------------------------------------------------------------|
B|-----------------6--6--6--6--6--6--6--6--3--3--3--3--3--3--3--3--4--4--4--4--4--4--4--4---| x1
G|--5--5--5--5--5--4--4--4--4--4--4--4--4--3--3--3--3--3--3--3--3--3--3--3--3--3--3--3--3---|
D|------------------------------------------------------------------------------------------|
A|------------------------------------------------------------------------------------------|
E|------------------------------------------------------------------------------------------|

Cm Bdim/D Bb Eb
e|--3--3--3--3--3--3--3--3--------------------------------------------------------------------------|
B|--------------------------6--6--6--6--6--6--6--6--3--3--3--3--3--3--3--3--4--4--4--4--4--4--4--4--| x3
G|--5--5--5--5--5--5--5--5--4--4--4--4--4--4--4--4--3--3--3--3--3--3--3--3--3--3--3--3--3--3--3--3--|
D|--------------------------------------------------------------------------------------------------|
A|--------------------------------------------------------------------------------------------------|
E|--------------------------------------------------------------------------------------------------|

Cm Bdim/D Bb
e|--3--3--3--3--3--3--3--3-----------------------------|
B|--------------------------6--6--6--6--6--6--6--6--3--|
G|--5--5--5--5--5--5--5--5--4--4--4--4--4--4--4--4--3--|
D|-----------------------------------------------------|
A|-----------------------------------------------------|
E|-----------------------------------------------------|

Bb B Bb/F Baug
Singsongs 'round the money tree, this stunning documentary that no one else unfortunately saw
Cm Bdim/D
Such beautiful photography, it's worth it for the opening scene,
Bb Eb
I've been driving 'round listening to the score.
Cm Bdim/D
Or maybe I just imagined it all
Bb Eb
I've played to quiet rooms like this before
Cm Bdim/D Bb Eb
Bear with me man, I lost my train of thought.

Cm Bdim/D Bb Eb
Cm Bdim/D Bb


| / slide up
| slide down
| h hammer-on
| p pull-off
| ~ vibrato
| + harmonic
| x Mute note

Клип Arctic Monkeys - One Point Perspective

Текст песни One Point Perspective

Тексты песен Arctic Monkeys являются собственностью правообладателей и лейбла Domino Recording Company. Контент «One Point Perspective» представлен на нашем ресурсе исключительно для ознакомления и личного пользования.
All lyrics are property and copyright of their owners. All lyrics provided for educational purposes and personal use only.

Рекомендуем
Постер Arctic Monkeys - Only You Know
Arctic Monkeys - Only You Know
Инди / 6-05-2021
{views}
Постер Arctic Monkeys - My Propeller
Arctic Monkeys - My Propeller
Инди / 14-04-2021
{views}
Постер Arctic Monkeys - If You Were There Beware
Arctic Monkeys - If You Were There Beware
Инди / 25-04-2021
{views}
Комментарии (0)
Добавить
Кликните на изображение чтобы обновить код, если он неразборчив