Text-Pesni.ws » Альтернатива » Пост-хардкор » Get Up Kids - Coming Clean
Постер Get Up Kids - Coming Clean
0 0 00
Слушать

Текст песни Coming Clean
Get Up Kids

!
  • Артист: Get Up Kids
  • Название: Coming Clean
  • Лейбл: Doghouse America
  • Просмотров: 6
  • Качество: 320 kbps
  • Добавлено: 27-09-2021

Слова песни Get Up Kids - Coming Clean

Перевод


Intro:
guitar 1:
-4-4--5----4---0--------
-5-5--5----4---0--------
-6-6--6----4---1---14---
-6-6--7----6---2--------
-4-4--7----6---2---12---
------5----4---0--------

then:
guitar 1:
-4-4--5----4---0--------0-------
-5-5--5----4---0--------0-------
-6-6--6----4---1--9-9--1-9-9----
-6-6--7----6---2--------2-------
-4-4--7----6---2--7-7--2-7-7----
------5----4---0--------0-------

guitar 2:
---------------------------------------
---------------------------------------
-8-9--9----8---4--------16-14-12-------
---------------------------------------
-6-7--7----6---2--------14-12-11-------
---------------------------------------

then:
guitar 1:
-4-4--5----4---0--------------------
-5-5--5----4---0--------------------
-6-6--6----4---1--8/9--8/9--8/9-----
-6-6--7----6---2--------------------
-4-4--7----6---2--6/7--6/7--6/7-----
------5----4---0--------------------

guitar 2:
---------------------------------------
---------------------------------------
-8-9--9----8---4---8/9--8/9--8/9-------
---------------------------------------
-6-7--7----6---2---6/7--6/7--6/7-------
---------------------------------------

then:
guitar 1:
-4-4--5----4---0--------0--------
-5-5--5----4---0--------0--------
-6-6--6----4---1--9-9--1-9-9-----
-6-6--7----6---2--------2--------
-4-4--7----6---2--7-7--2-7-7-----
-------5----4---0--------0-------

guitar 2:
----------------------------------
----------------------------------
-8-9--9----8---4--------16-14-12--
----------------------------------
-6-7--7----6---2--------14-12-11--
----------------------------------

then:
guitar 1:
-4-4--5----4---0--
-5-5--5----4---0--
-6-6--6----4---1--
-6-6--7----6---2--
-4-4--7----6---2--
------5----4---0--

guitar 2:
---------------------------------------
---------------------------------------
-8-9--9----8---4---8/9--8/9--8/9-------
---------------------------------------
-6-7--7----6---2---6/7--6/7--6/7-------
---------------------------------------

Verse:
guitar 1:
-4--4-4-4-4-4-7-4-7---0-------
-5-5-5-5-5-5------------0-----
-6------------------------1---
--------------------------2---
--------------------------2---
--------------------------0---

guitar 2:
-------12--------14-12--------------------------
----13----13------------------------------------
-11-----------------------16-16-16-14-14-13-13--
------------------------------------------------
--------------------------14-14-14-12-12-11-11--
------------------------------------------------

then:
guitar 1: same
guitar 2:
-------12--------14-12-------------------
----13----13-----------------------------
-11-----------------------9-9-9-8-8-4-4--
-----------------------------------------
--------------------------7-7-7-6-6-2-2--
-----------------------------------------

then:
guitar 1: same
guitar 2:
-------12--------14-12--------------------------
----13----13------------------------------------
-11-----------------------16-16-16-14-14-13-13--
------------------------------------------------
--------------------------14-14-14-12-12-11-11--
------------------------------------------------

then:
guitar 1:
-4-4-4-4-7-7-7-7------
-5-5-5-5-5-5-5-5------
----------------------
----------------------
----------------------
----------------------

guitar 2:
-------------------
-------------------
-13---14--13-11-9--
-------------------
-11---12--11--9-7--
-------------------

guitar 1:
---4--5--7----4-------2-----0--
---4--5--7----5-------4-----2--
---4--6--8----6-------4-----2--
---6--7--9----6-------4-----2--
---6--7--9----4-------2-----0--
---4--5--7---------------------

guitar 2:
-----------------------------
-----------------------------
---9-11--4----13-14-13-11-9--
-----------------------------
---7--9---2---11-12-11--9-7--
-----------------------------

then:
both guitars: same
then:
guitar 1: same
guitar 2:
--------------------------------------------
--------------------------------------------
-16-----9--13/14-14/16-16---13-14-13-11-9---
--------------------------------------------
-14-----7--11/12-12/14-14---11-12-11--9-7---
--------------------------------------------

then:
guitar 1: same
guitar 2:
-----------------------------
-----------------------------
---9-11--4----13-14-13-11-9--
-----------------------------
---7--9--2----11-12-11--9-7--
-----------------------------

then:
guitar 1:
---4------2---------
---5------4------9--
---6------4---------
---6------4------7--
---4------2---------
--------------------

guitar 2:
------------------
------------------
---13-14-13-11-9--
------------------
---11-12-11--9-7--
------------------

guitar 1:
---------------
---------------
-6-------11-9--
---------------
-4--------9-7--
---------------

guitar 2:
---------------------
---5-4----5-4--------
---------------------
---------------------
-4------2-------0-2--
---------------------

then:
guitar 1:
-----------------------------
-----------------------------
-8-6-------11-9-------14-13--
-----------------------------
-6-4--------9-7-------12-11--
-----------------------------

guitar 2:
---------------------------
-------5-4----5-4----------
---------------------------
---------------------------
-----4------2-------0---2--
---------------------------

then:
guitar 1:
---------------
---------------
-6-------11-9--
---------------
-4--------9-7--
---------------

guitar 2:
-----------------------------
----------------------9-10-9-
--9--9--9--9--9--9-----------
-----------------------------
-7--7--7--7--7--7------------
-----------------------------

then:
guitar 1:
--------------------
--------------------
-(9)8--6---11--9---
--------------------
-(7)6--4----9--7---
--------------------

guitar 2:
----------------------------------------------
-------------------------------9-10-9----9-9--
-----------9--9--9--9--9--9-------------------
----------------------------------------------
----------7--7--7--7--7--7--------------------
----------------------------------------------

then:
guitar 1:
--------------------
--------------------
-6------------------
--------------------
-4-----0--------2---
----------4------0--

guitar 2:
-------------------------------------
----------------------9-10-9----9-9--
--9--9--9--9--9--9-------------------
-------------------------------------
-7--7--7--7--7--7--------------------
-------------------------------------

then:
guitar 1:
------------------
------------------
------------------
------------------
-4----------------
--------5-----4--

guitar 2:
--------------------
--------------------
--9--9--9--9--9--9--
--------------------
-7--7--7--7--7--7---
--------------------

guitar 1:
-4-0-4-0-7-5-4-0-4-0-4-0-7-5-4--
----------------------------------------
----------------------------------------
----------------------------------------
----------------------------------------
----------------------------------------

guitar 2: 2-second smoke break

then:
guitar 1:
----
----
----
-2--
-2--
-0--

guitar 2:
-----------
-----------
------4-4--
-2-2--4-4--
-2-2--2-2--
-0-0-------

then:
guitar 1:
-4-0-4-0-7-5-4-0-4-0-4-0-7--
-----------------------------------
-----------------------------------
-----------------------------------
-----------------------------------
-----------------------------------

guitar 2:
-----------------------------------
-----------------------------------
--------------------------------0--
--------------------------------0--
--------------------------------0--
--------------------------------0--

guitar 1:
---4-------2----0----4---5--7---
---5-------4----2----4---5--7---
---6-------4----2----4---6--8---
---6-------4----2----6---7--9---
---4-------2----0----6---7--9---
-----------------------4---5--7-

guitar 2:
-----------------------------
-----------------------------
---13-14-13-11-9---9---11-4--
-----------------------------
---11-12-11--9-7---7----9-2--
-----------------------------

then:
guitar 1: same
guitar 2: same

then:
guitar 1: same
guitar 2:
---------------------------------------------------
---------------------------------------------------
----13-14-13-11-9--------16-----9--13/14-14/16-16--
---------------------------------------------------
----11-12-11--9-7--------14-----7--11/12-12/14-14--
---------------------------------------------------

then:
guitar 1: same
guitar 2:
-----------------------------
-----------------------------
---13-14-13-11-9---9---11-4--
-----------------------------
---11-12-11--9-7---7----9-2--
-----------------------------

guitar 1:
---4-------2----0-----4------2---7--
---5-------4----2-----5------4---9--
---6-------4----2-----6------4---9--
---6-------4----2-----6------4---9--
---4-------2----0-----4------2---7--
------------------------------------

guitar 2:
---------------------------------
---------------------------------
---13-14-13-11-9---13-14-16---9--
---------------------------------
---11-12-11--9-7---11-12-14---7--
---------------------------------

then:
guitar 1 (only first chord is picked; the rest are just legato slides):
------------------
------------------
------------------
-6-/7-/9-/11-/14--
-6-/7-/9-/11-/14--
-4-/5-/7--/9-/12--

Аккорды Get Up Kids - Coming Clean

COMING CLEAN - The Get Up Kids

By Jim kensarcade@hotmail.com

Intro:
guitar 1:
C#m-A-G#m-E
-4-4--5----4---0--------
-5-5--5----4---0--------
-6-6--6----4---1---14---
-6-6--7----6---2--------
-4-4--7----6---2---12---
------5----4---0--------

then:
guitar 1:
C#m-A-G#m-E
-4-4--5----4---0--------0-------
-5-5--5----4---0--------0-------
-6-6--6----4---1--9-9--1-9-9----
-6-6--7----6---2--------2-------
-4-4--7----6---2--7-7--2-7-7----
------5----4---0--------0-------

guitar 2:
---------------------------------------
---------------------------------------
-8-9--9----8---4--------16-14-12-------
---------------------------------------
-6-7--7----6---2--------14-12-11-------
---------------------------------------

then:
guitar 1:
-4-4--5----4---0--------------------
-5-5--5----4---0--------------------
-6-6--6----4---1--8/9--8/9--8/9-----
-6-6--7----6---2--------------------
-4-4--7----6---2--6/7--6/7--6/7-----
------5----4---0--------------------

guitar 2:
---------------------------------------
---------------------------------------
-8-9--9----8---4---8/9--8/9--8/9-------
---------------------------------------
-6-7--7----6---2---6/7--6/7--6/7-------
---------------------------------------

then:
guitar 1:
-4-4--5----4---0--------0--------
-5-5--5----4---0--------0--------
-6-6--6----4---1--9-9--1-9-9-----
-6-6--7----6---2--------2--------
-4-4--7----6---2--7-7--2-7-7-----
-------5----4---0--------0-------

guitar 2:
----------------------------------
----------------------------------
-8-9--9----8---4--------16-14-12--
----------------------------------
-6-7--7----6---2--------14-12-11--
----------------------------------

then:
guitar 1:
-4-4--5----4---0--
-5-5--5----4---0--
-6-6--6----4---1--
-6-6--7----6---2--
-4-4--7----6---2--
------5----4---0--

guitar 2:
---------------------------------------
---------------------------------------
-8-9--9----8---4---8/9--8/9--8/9-------
---------------------------------------
-6-7--7----6---2---6/7--6/7--6/7-------
---------------------------------------

Verse:
guitar 1:
-4--4-4-4-4-4-7-4-7---0-------
-5-5-5-5-5-5------------0-----
-6------------------------1---
--------------------------2---
--------------------------2---
--------------------------0---

guitar 2:
-------12--------14-12--------------------------
----13----13------------------------------------
-11-----------------------16-16-16-14-14-13-13--
------------------------------------------------
--------------------------14-14-14-12-12-11-11--
------------------------------------------------

then:
guitar 1: same
guitar 2:
-------12--------14-12-------------------
----13----13-----------------------------
-11-----------------------9-9-9-8-8-4-4--
-----------------------------------------
--------------------------7-7-7-6-6-2-2--
-----------------------------------------

then:
guitar 1: same
guitar 2:
-------12--------14-12--------------------------
----13----13------------------------------------
-11-----------------------16-16-16-14-14-13-13--
------------------------------------------------
--------------------------14-14-14-12-12-11-11--
------------------------------------------------

then:
guitar 1:
-4-4-4-4-7-7-7-7------
-5-5-5-5-5-5-5-5------
----------------------
----------------------
----------------------
----------------------

guitar 2:
-------------------
-------------------
-13---14--13-11-9--
-------------------
-11---12--11--9-7--
-------------------

First Chorus:
guitar 1:
G#m-A-B-C#m-----B----A
---4--5--7----4-------2-----0--
---4--5--7----5-------4-----2--
---4--6--8----6-------4-----2--
---6--7--9----6-------4-----2--
---6--7--9----4-------2-----0--
---4--5--7---------------------

guitar 2:
-----------------------------
-----------------------------
---9-11--4----13-14-13-11-9--
-----------------------------
---7--9---2---11-12-11--9-7--
-----------------------------

then:
both guitars: same
then:
guitar 1: same
guitar 2:
(G#m-A--B-------------------C#m---B------A)
--------------------------------------------
--------------------------------------------
-16-----9--13/14-14/16-16---13-14-13-11-9---
--------------------------------------------
-14-----7--11/12-12/14-14---11-12-11--9-7---
--------------------------------------------

then:
guitar 1: same
guitar 2:
-----------------------------
-----------------------------
---9-11--4----13-14-13-11-9--
-----------------------------
---7--9--2----11-12-11--9-7--
-----------------------------

then:
guitar 1:
C#m-B
---4------2---------
---5------4------9--
---6------4---------
---6------4------7--
---4------2---------
--------------------

guitar 2:
------------------
------------------
---13-14-13-11-9--
------------------
---11-12-11--9-7--
------------------

Bridge:
guitar 1:
---------------
---------------
-6-------11-9--
---------------
-4--------9-7--
---------------

guitar 2:
---------------------
---5-4----5-4--------
---------------------
---------------------
-4------2-------0-2--
---------------------

then:
guitar 1:
-----------------------------
-----------------------------
-8-6-------11-9-------14-13--
-----------------------------
-6-4--------9-7-------12-11--
-----------------------------

guitar 2:
---------------------------
-------5-4----5-4----------
---------------------------
---------------------------
-----4------2-------0---2--
---------------------------

then:
guitar 1:
---------------
---------------
-6-------11-9--
---------------
-4--------9-7--
---------------

guitar 2:
-----------------------------
----------------------9-10-9-
--9--9--9--9--9--9-----------
-----------------------------
-7--7--7--7--7--7------------
-----------------------------

then:
guitar 1:
--------------------
--------------------
-(9)8--6---11--9---
--------------------
-(7)6--4----9--7---
--------------------

guitar 2:
----------------------------------------------
-------------------------------9-10-9----9-9--
-----------9--9--9--9--9--9-------------------
----------------------------------------------
----------7--7--7--7--7--7--------------------
----------------------------------------------

then:
guitar 1:
--------------------
--------------------
-6------------------
--------------------
-4-----0--------2---
----------4------0--

guitar 2:
-------------------------------------
----------------------9-10-9----9-9--
--9--9--9--9--9--9-------------------
-------------------------------------
-7--7--7--7--7--7--------------------
-------------------------------------

then:
guitar 1:
------------------
------------------
------------------
------------------
-4----------------
--------5-----4--

guitar 2:
--------------------
--------------------
--9--9--9--9--9--9--
--------------------
-7--7--7--7--7--7---
--------------------

guitar 1:
-4-0-4-0-7-5-4-0-4-0-4-0-7-5-4--
----------------------------------------
----------------------------------------
----------------------------------------
----------------------------------------
----------------------------------------

guitar 2: 2-second smoke break

then:
guitar 1:
----
----
----
-2--
-2--
-0--

guitar 2:
-----------
-----------
------4-4--
-2-2--4-4--
-2-2--2-2--
-0-0-------

then:
guitar 1:
-4-0-4-0-7-5-4-0-4-0-4-0-7--
-----------------------------------
-----------------------------------
-----------------------------------
-----------------------------------
-----------------------------------

guitar 2:
-----------------------------------
-----------------------------------
--------------------------------0--
--------------------------------0--
--------------------------------0--
--------------------------------0--

Second Chorus:
guitar 1:
C#m-----B----A-G#m-A-B
---4-------2----0----4---5--7---
---5-------4----2----4---5--7---
---6-------4----2----4---6--8---
---6-------4----2----6---7--9---
---4-------2----0----6---7--9---
-----------------------4---5--7-

guitar 2:
-----------------------------
-----------------------------
---13-14-13-11-9---9---11-4--
-----------------------------
---11-12-11--9-7---7----9-2--
-----------------------------

then:
guitar 1: same
guitar 2: same

then:
guitar 1: same
guitar 2:
(C#m-----B-----A-------G#m----A--B)
---------------------------------------------------
---------------------------------------------------
----13-14-13-11-9--------16-----9--13/14-14/16-16--
---------------------------------------------------
----11-12-11--9-7--------14-----7--11/12-12/14-14--
---------------------------------------------------

then:
guitar 1: same
guitar 2:
-----------------------------
-----------------------------
---13-14-13-11-9---9---11-4--
-----------------------------
---11-12-11--9-7---7----9-2--
-----------------------------

guitar 1:
---4-------2----0-----4------2---7--
---5-------4----2-----5------4---9--
---6-------4----2-----6------4---9--
---6-------4----2-----6------4---9--
---4-------2----0-----4------2---7--
------------------------------------

guitar 2:
---------------------------------
---------------------------------
---13-14-13-11-9---13-14-16---9--
---------------------------------
---11-12-11--9-7---11-12-14---7--
---------------------------------

then:
guitar 1 (only first chord is picked; the rest are just legato slides):
------------------
------------------
------------------
-6-/7-/9-/11-/14--
-6-/7-/9-/11-/14--
-4-/5-/7--/9-/12--

Клип Get Up Kids - Coming Clean

Текст песни Coming Clean

Тексты песен Get Up Kids являются собственностью правообладателей и лейбла Doghouse America. Контент «Coming Clean» представлен на нашем ресурсе исключительно для ознакомления и личного пользования.
All lyrics are property and copyright of their owners. All lyrics provided for educational purposes and personal use only.

Рекомендуем
Постер Get Up Kids - Better Half
Get Up Kids - Better Half
Пост-хардкор / 27-09-2021
{views}
Постер At The Drive-in - Circuit Scene
At The Drive-in - Circuit Scene
Пост-хардкор / 3-05-2021
{views}
Постер Get Up Kids - Fall Semester
Get Up Kids - Fall Semester
Пост-хардкор / 27-09-2021
{views}
Постер Hell Is For Heroes - Five Kids Go
Hell Is For Heroes - Five Kids Go
Пост-хардкор / 10-04-2021
{views}
Постер At The Drive-in - Enfilade
At The Drive-in - Enfilade
Пост-хардкор / 15-04-2021
{views}
Комментарии (0)
Добавить
Кликните на изображение чтобы обновить код, если он неразборчив