Text-Pesni.ws » Альтернатива » Хардкор » H2o - One Life One Chance
Постер H2o - One Life One Chance
0 0 00
Слушать

Текст песни One Life One Chance
H2o

!
  • Артист: H2o
  • Название: One Life One Chance
  • Лейбл: Epitaph
  • Просмотров: 13
  • Качество: 320 kbps
  • Добавлено: 28-09-2021

Слова песни H2o - One Life One Chance

Перевод


e|-----------------------------------------------------------------------------------------|

e|----------------------------------------------------------|

on 3rd time in verse
e|---------------------------------------------------------------------|

e|--------------------------------------------------------|

on 3rd time in repeat verse
e|--------------------------------------------------------------------------|

e|--------------------------------------|

e|--------------------------------------------------------------------------|

e|--------------------------------------------------------------------------|

e|------------------------------------------------------------------------------------------------------------5--------|

e|--------------------------------------------------------------------------|

e|--------------------------------------------------------------------------|

exact

OUTRO:
e|--------------------------------------------------------------------------|

Аккорды H2o - One Life One Chance

ONE LIFE, ONE CHANCE - H2O

By: Dan M: hepkatt2@yahoo.com (solo modified & fixed by Michael E)

INTRO: Guitar 1:
e|-----------------------------------------------------------------------------------------|
B|-----------------------------------------------------------------------------------------|
G|-----------------------------------------------------------------------------------------|
D|---5---------------------------5-5-5-5-5-5-5-5-x-----------------------5-5-5-5-5-5-5--5--|
A|---3---5---3-3-3-3-3-3-3-3-x---3-3-3-3-3-3-3-3-x---3-3-3-3-3-3-3-3-x---3-3-3-3-3-3-3--3--|
E|-------3---1-1-1-1-1-1-1-1-x-----------------------1-1-1-1-1-1-1-1-x---------------------|

VERSE:
e|----------------------------------------------------------|
B|----------------------------------------------------------|
G|----------------------------------------------------------| X 2
D|--------------------5---5--5--5---------------------------|
A|---3-xx--3-3-3-3----3---3--3--3---------------------------|
E|---1-xx--1-1-1-1------------------------------------------|

on 3rd time in verse
e|---------------------------------------------------------------------|
B|---------------------------------------------------------------------|
G|---------------------------------------------------------------------|
D|-------------------------------5-5-5-5-5-5---------------------------|
A|---3-xx--3-3-3-3/7-7-7-7-7-7-7-3-3-3-3-3-3-x-5-x-5-x-5---------------|
E|---1-xx--1-1-1-1/5-5-5-5-5-5-5-------------x-3-x-3-x-3---------------|

Repeat VERSE:
e|--------------------------------------------------------|
B|--------------------------------------------------------|
G|--------------------------------------------------------| X 2
D|--------------------5---5--5--5-------------------------|
A|---3-xx--3-3-3-3----3---3--3--3-------------------------|
E|---1-xx--1-1-1-1----------------------------------------|

on 3rd time in repeat verse
e|--------------------------------------------------------------------------|
B|--------------------------------------------------------------------------|
G|--------------------------------------------------------------------------|
D|-------------------------------5-5-5-5-5-5--------------------------------|
A|---3-xx--3-3-3-3/7-7-7-7-7-7-7-3-3-3-3-3-3-x-5-x-5------------------------|
E|---1-xx--1-1-1-1/5-5-5-5-5-5-5-------------x-3-x-3------------------------|

Fill 1:
e|--------------------------------------|
B|--------------------------------------|
G|--7-9-10-9-7--------------------------|
D|----------------10-9-7----------------|
A|--------------------------------------|
E|--------------------------------------|

CHORUS:
e|--------------------------------------------------------------------------|
B|--------------------------------------------------------------------------|
G|--------------------------------------------------------------------------|
D|---------------5-5-5-5-5---------------------5-5-5-5-5--------------------|
A|---3-3--5-5-5--3-3-3-3-3---------3-3--5-5-5--3-3-3-3-3--------------------|
E|---1-1--3-3-3--------------------1-1--3-3-3-------------------------------|

e|--------------------------------------------------------------------------|
B|--------------------------------------------------------------------------|
G|--------------------------------------------------------------------------|
D|-----------------5-5-5-5-5/7-7-7-7/10/9/5---5------5--5-------------------|
A|---3-3--5-5-5--3-3-3-3-3/5-5-5-5/8/7/3----3-5--3-5-3--5-------------------|
E|---1-1--3-3-3--------------------------------------3--3-------3-----------|

SOLO : Guitar 2: Other guitar repeats Chorus during
e|------------------------------------------------------------------------------------------------------------5--------|
B|---------------------------------------------------------------------------------------------------------------8-----|
G|---9---10--9--7--9--7---------9--10--9--7---9----9--10--9--7--9--7-----------------------------5---------7-----------|
D|--------------------------10-----------------------------------------10-7-----7----------5--7----7--5--7-------------|
A|---------------------------------------------------------------------------10------5--7------------------------------|
E|---------------------------------------------------------------------------------------------------------------------|

Fill 2: Guitar 1
e|--------------------------------------------------------------------------|
B|--------------------------------------------------------------------------|
G|--------------------------------------------------------------------------|
D|------5-------5--7--------------------------------------------------------|
A|---3--3---3---3--5---x--5--x--5--x---5------------------------------------|
E|---1------1----------x--3--x--3--x---3------------------------------------|

Fill: Guitar 2
e|--------------------------------------------------------------------------|
B|--------------------------------------------------------------------------|
G|--7-9-10-9-7--------------------------------------------------------------|
D|----------------10-9-7----------------------------------------------------|
A|--------------------------------------------------------------------------|
E|--------------------------------------------------------------------------|

Repeat Chorus
Repeat End of Chorus several times listen to CD for
exact

OUTRO:
e|--------------------------------------------------------------------------|
B|--------------------------------------------------------------------------|
G|---7-7-7-7--7---7/10/9/5--------------------------------------------------|
D|--------------------------------------------------------------------------|
A|--------------------------------------------------------------------------|
E|--------------------------------------------------------------------------|

Клип H2o - One Life One Chance

Текст песни One Life One Chance

Тексты песен H2o являются собственностью правообладателей и лейбла Epitaph. Контент «One Life One Chance» представлен на нашем ресурсе исключительно для ознакомления и личного пользования.
All lyrics are property and copyright of their owners. All lyrics provided for educational purposes and personal use only.

Рекомендуем
Постер Hatebreed - Proven
Hatebreed - Proven
Хардкор / 10-04-2021
{views}
Постер Rise Against - Life Less Frightening Acoustic
Rise Against - Life Less Frightening Acoustic
Хардкор / 31-01-2021
{views}
Постер Wildways - Black Chell
Wildways - Black Chell
Хардкор / 27-01-2021
{views}
Постер Stick To Your Guns - Nothing You Can Do To Me
Stick To Your Guns - Nothing You Can Do To Me
Хардкор / 30-01-2021
{views}
Постер Rise Against - Everchanging Acoustic
Rise Against - Everchanging Acoustic
Хардкор / 14-02-2021
{views}
Комментарии (0)
Добавить
Кликните на изображение чтобы обновить код, если он неразборчив