Постер Incubus - Echo
0 0 00
Слушать

Текст песни Echo
Incubus

!
  • Артист: Incubus
  • Название: Echo
  • Лейбл: Sony
  • Просмотров: 14
  • Качество: 320 kbps
  • Добавлено: 23-11-2021

Слова песни Incubus - Echo

Перевод
Intro/chorus: [-------------------------------------------------
-------------------------------------------------
---7------------------------9--------------------
---77/9-9/12-12/14-b14/12---99/12-12/9---99-b9/7-
--7-7/9-9/12-12/14-b14/12--9-9/12-12/9--9-9-b9/7-
-0------------------------7----------------------

verse: --------------------
-7-----------5-5-----
-9---9-------7--7----
-9--9-9------7---7---
-7-7---7-----5----5--
-0------(0)--0-----(0)]

i need help with the pre chorus



outro: -------------
-7-----------
--9---------- strum this lightly a few times
---9---------
----7--------
-----0-------]

Аккорды Incubus - Echo

Intro/chorus: [-------------------------------------------------
-------------------------------------------------
---7------------------------9--------------------
---77/9-9/12-12/14-b14/12---99/12-12/9---99-b9/7-
--7-7/9-9/12-12/14-b14/12--9-9/12-12/9--9-9-b9/7-
-0------------------------7----------------------

verse: --------------------
-7-----------5-5-----
-9---9-------7--7----
-9--9-9------7---7---
-7-7---7-----5----5--
-0------(0)--0-----(0)]

i need help with the pre chorus

solo: [E-19-17~-14~-b12---------------------------------------------------------
B---------------15~-12-10-12--------------------13-15-13--15-17-15-17-19-
G----------------------------9-11-9~--9-11-12-14-------------------------

E-19-17-14-b12-------------------
B-------------15-12-10~~~--------
G--------------------------------

outro: -------------
-7-----------
--9---------- strum this lightly a few times
---9---------
----7--------
-----0-------]

Клип Incubus - Echo

Текст песни Echo

Тексты песен Incubus являются собственностью правообладателей и лейбла Sony. Контент «Echo» представлен на нашем ресурсе исключительно для ознакомления и личного пользования.
All lyrics are property and copyright of their owners. All lyrics provided for educational purposes and personal use only.

Рекомендуем
Постер Incubus - Aqueous Transmission
Incubus - Aqueous Transmission
Альтернатива / 23-11-2021
{views}
Постер Incubus - Wish You Were Here
Incubus - Wish You Were Here
Альтернатива / 21-03-2021
{views}
Постер Bigwig - Sore Loser
Bigwig - Sore Loser
Альтернатива / 24-02-2021
{views}
Постер Forty Foot Echo - Save Me
Forty Foot Echo - Save Me
Альтернатива / 7-04-2021
{views}
Постер Deftones - Nightboat
Deftones - Nightboat
Альтернатива / 1-05-2021
{views}
Комментарии (0)
Добавить
Кликните на изображение чтобы обновить код, если он неразборчив