Text-Pesni.ws » Альтернатива » H-blockx - The Power
Постер H-blockx - The Power
0 0 00
Слушать

Текст песни The Power
H-blockx

!
  • Артист: H-blockx
  • Название: The Power
  • Лейбл: Supersonic-GUN
  • Просмотров: 4
  • Качество: 320 kbps
  • Добавлено: 28-09-2021

Слова песни H-blockx - The Power

Перевод
Song: The Power
Tabbed by : elliot smith (elliot_smith01@hotmail.com)

Ok this i cant find this tab anywhere on the net so i sat down and figured it out
i think the chorus is a little off but for a 1st atempt it aint that bad!


Intro
eb:------------------------------------------------
bb:------------------------------------------------
gb:------------------------------------------------
db:--xx-0-x-x-xx-5-x-x-xx-0-x-x-xx-5-x-------------
ab:--xx-0-x-x-xx-5-x-x-xx-0-x-x-xx-5-x-------------
db:--xx-0-x-x-xx-5-x-x-xx-0-x-x-xx-5-x-------------
pm .. . . .. . . .. . . .. .

eb:------------------------
bb:--------------------5^--

Аккорды H-blockx - The Power

Band: H-blockx
Song: The Power
Tabbed by : elliot smith (elliot_smith01@hotmail.com)

Ok this i cant find this tab anywhere on the net so i sat down and figured it out
i think the chorus is a little off but for a 1st atempt it aint that bad!

Tuning: Drop Db if this dunt sound rite the try just drop D

Intro
eb:------------------------------------------------
bb:------------------------------------------------
gb:------------------------------------------------
db:--xx-0-x-x-xx-5-x-x-xx-0-x-x-xx-5-x-------------
ab:--xx-0-x-x-xx-5-x-x-xx-0-x-x-xx-5-x-------------
db:--xx-0-x-x-xx-5-x-x-xx-0-x-x-xx-5-x-------------
pm .. . . .. . . .. . . .. .

eb:------------------------
bb:--------------------5^--

Клип H-blockx - The Power

Текст песни The Power

Тексты песен H-blockx являются собственностью правообладателей и лейбла Supersonic-GUN. Контент «The Power» представлен на нашем ресурсе исключительно для ознакомления и личного пользования.
All lyrics are property and copyright of their owners. All lyrics provided for educational purposes and personal use only.

Рекомендуем
Постер H-blockx - Move
H-blockx - Move
Альтернатива / 28-09-2021
{views}
Постер H-blockx - Little Girl
H-blockx - Little Girl
Альтернатива / 28-09-2021
{views}
Постер H-blockx - Take Me Home
H-blockx - Take Me Home
Альтернатива / 28-09-2021
{views}
Постер H-blockx - 9 08 Am
H-blockx - 9 08 Am
Альтернатива / 28-09-2021
{views}
Постер Tiger Army - Power Of Moonlite
Tiger Army - Power Of Moonlite
Альтернатива / 1-02-2021
{views}
Комментарии (0)
Добавить
Кликните на изображение чтобы обновить код, если он неразборчив