Text-Pesni.ws » » Incubus - Calgona
Постер Incubus - Calgona
0 0 00
Слушать

Текст песни Calgona
Incubus

!
  • Артист: Incubus
  • Название: Calgona
  • Просмотров: 4
  • Качество: 320 kbps
  • Добавлено: 23-11-2021

Слова песни Incubus - Calgona

Перевод
Intro
[e------------------------------

Riff 1
[e----------------

Verse (Verse 1 only)
[e-0-0--------0-0--------0-0--------0-0--

(Phaser)
[e---------------------------

[e-------------------------------------------------------------------------

Verse
[e------------0-

Outro
[e--1--1--1---------1--1--1--------------------------

Аккорды Incubus - Calgona

Intro
(Clean)
[e------------------------------
B-2--2--2--2-----3--3--3--3----
G--2--2--2--2-----3--3--3--3---
D---3--3--3--3-----4--4--4--4-- } x3
A------------------------------
E------------------------------]

Riff 1
(Distortion)
[e----------------
B----------------
G--------5-------
D-2*22-4-5-4-2-4-
A-2*22-4-3-4-2-4-
E-0*00-2---2-0-2-]

Verse (Verse 1 only)
[e-0-0--------0-0--------0-0--------0-0--
B-0-0--------0-0--------0-0--------0-0--
G-0-0--------0-0--------0-0--------0-0-- } x2
D-0-0--------0-0--------0-0--------0-0--
A---------------------------------------
E---------------------------------------]

Bridge
(Phaser)
[e---------------------------
B----4------4------4------4-
G----3------3------3------3- } x2
D--4-------4------4------4--
A-2-------2------2------2---
E---------------------------]

Chorus
(Distortion)
[e-------------------------------------------------------------------------
B-------------------------------------------------------------------------
G-4-4---------2---4-4---------------4-4---------2---4-4---------7---------
D-4-4---4-5-4-2---4-4---4-5-4-------4-4---4-5-4-2---4-4---4-5-4-7---------
A-2-2---4-5-4-0---2-2---4-5-4-------2-2---4-5-4-0---2-2---4-5-4-5---------
E-------2-3-2-----------2-3-2-------------2-3-2-----------2-3-2-----------]

Verse
(Distortion)
[e------------0-
B------------0-
G--444-44-0-
D------------0- } x12
A--------------
E--------------]

Outro
(Distortion)
[e--1--1--1---------1--1--1--------------------------
B--0--0--0---------0--0--0--------------------------
G--3--3--3---------3--3--3--------------------------
D-------------------------------------------------2-
A-------------------------------------------------2-
E-------------------------------------------------0-]

Клип Incubus - Calgona

Текст песни Calgona

Тексты песен Incubus являются собственностью правообладателей. Контент «Calgona» представлен на нашем ресурсе исключительно для ознакомления и личного пользования.
All lyrics are property and copyright of their owners. All lyrics provided for educational purposes and personal use only.

Рекомендуем
Комментарии (0)
Добавить
Кликните на изображение чтобы обновить код, если он неразборчив