Text-Pesni.ws » » Gasoline - Rabalderstraede
Постер Gasoline - Rabalderstraede
0 0 00
Слушать

Текст песни Rabalderstraede
Gasoline

!
  • Артист: Gasoline
  • Название: Rabalderstraede
  • Просмотров: 103
  • Качество: 320 kbps
  • Добавлено: 12-05-2021

Слова песни Gasoline - Rabalderstraede

Перевод

1st verse: [---------------------------------------------------------
---------------------------------------------------------
---------------------------------------------------------
-7-7-7-7-7-7-7-7-7-7-7-7-----5-6-7-----------------5-6-7-
---------------------------7-----------------------------
---------------------------------------------------------]
Rabalderstraede
[---------------------------------------------------------
---------------------------------------------------------
--------------------------------------6-------------8----
------------5-6-7--------9-------------------------------
---------------------------------------------------------
---------------------------------------------------------]
[---------------------------------------------------------
---------------------------------------------------------
---------------------------------------------------------
-----------------3---------------------------------5---6-
-5-----3-----5-------5---4---5---5----3----5---5---------
---------------------------------------------------------]
[---------------------------------------------------------
---------------------------------------------------------
---------------------------------------------------------
-----------------5---------------------------------------
-7-----5-----7-------7---6---7---7----5----7---6---------
--------------------------------------------------7----6-
---------------------------------------------------------]
ud! og
[---------------------------------------------------------
---------------------------------------------------------
---------------------------------------------------------
-----------------3---------------------------------5---6-
-5-----3-----5-------5---4---5---5----3----5---5---------
---------------------------------------------------------]
der er tinge linge latter, naar tumberne, de ruller sig
[---------------------------------------------------------
---------------------------------------------------------
---------------------------------------------------------
-----------------5---------------------------------------
-7-----5-----7-------7---6---7---7----5----7-------------
-----------------------------------------------8---5---6-
---------------------------------------------------------]
ud!
[------------------------------------------------------------
------------------------------------------------------------
-9----9---9----9--7----7--7---7-9---9--9-----9--7----7-7--7-
-9----9---9----9--7----7--7---7-9---9--9-----9--7----7-7--7-
-9----9---9----9--7----7--7---7-9---9--9-----9--7----7-7--7-
-7----7---7----7--5----5--5---5-7---7--7-----7--5----5-5--5-
------------------------------------------------------------]
kom og tag mig ...

Аккорды Gasoline - Rabalderstraede

Intro: G C C G

1st verse: [---------------------------------------------------------
---------------------------------------------------------
---------------------------------------------------------
-7-7-7-7-7-7-7-7-7-7-7-7-----5-6-7-----------------5-6-7-
---------------------------7-----------------------------
---------------------------------------------------------]
Rabalderstraede
[---------------------------------------------------------
---------------------------------------------------------
--------------------------------------6-------------8----
------------5-6-7--------9-------------------------------
---------------------------------------------------------
---------------------------------------------------------]
Er en gade hvor den slet slet ikke faar for lidt
[---------------------------------------------------------
---------------------------------------------------------
---------------------------------------------------------
-----------------3---------------------------------5---6-
-5-----3-----5-------5---4---5---5----3----5---5---------
---------------------------------------------------------]
For der er sprut i stride stroemme og lamperne gaar aldrig
[---------------------------------------------------------
---------------------------------------------------------
---------------------------------------------------------
-----------------5---------------------------------------
-7-----5-----7-------7---6---7---7----5----7---6---------
--------------------------------------------------7----6-
---------------------------------------------------------]
ud! og
[---------------------------------------------------------
---------------------------------------------------------
---------------------------------------------------------
-----------------3---------------------------------5---6-
-5-----3-----5-------5---4---5---5----3----5---5---------
---------------------------------------------------------]
der er tinge linge latter, naar tumberne, de ruller sig
[---------------------------------------------------------
---------------------------------------------------------
---------------------------------------------------------
-----------------5---------------------------------------
-7-----5-----7-------7---6---7---7----5----7-------------
-----------------------------------------------8---5---6-
---------------------------------------------------------]
ud!
[------------------------------------------------------------
------------------------------------------------------------
-9----9---9----9--7----7--7---7-9---9--9-----9--7----7-7--7-
-9----9---9----9--7----7--7---7-9---9--9-----9--7----7-7--7-
-9----9---9----9--7----7--7---7-9---9--9-----9--7----7-7--7-
-7----7---7----7--5----5--5---5-7---7--7-----7--5----5-5--5-
------------------------------------------------------------]
Fraekke chicks og friske fyre, droener rundt og spiller dyre
kom og tag mig ...

Клип Gasoline - Rabalderstraede

Текст песни Rabalderstraede

Тексты песен Gasoline являются собственностью правообладателей. Контент «Rabalderstraede» представлен на нашем ресурсе исключительно для ознакомления и личного пользования.
All lyrics are property and copyright of their owners. All lyrics provided for educational purposes and personal use only.

Рекомендуем
Комментарии (0)
Добавить
Кликните на изображение чтобы обновить код, если он неразборчив