Text-Pesni.ws » » Falkenbach - Eweroun
Постер Falkenbach - Eweroun
0 0 00
Слушать

Текст песни Eweroun
Falkenbach

!
  • Артист: Falkenbach
  • Название: Eweroun
  • Просмотров: 16
  • Качество: 320 kbps
  • Добавлено: 8-05-2021

Слова песни Falkenbach - Eweroun

Перевод
I wintars stilta hvis
I vorjaarns guldyn luiht
I naarjaars bluodin roud, naarjaars bluodin roud
I wintars stilta hvis
I vorjaarns guldyn luiht
I naarjaars bluodin roud, naarjaars bluodin roud
1:37 switch fast between these last 3 chords

melody end melody


e|-5----3-5-3-0--------5---3-5-3-8--7---5----3-5-3-0-------5----3-5-3--5--3---5-----0-8-7-|
b|----------------------------------------------------------------------------------------|
g|----------------2-2----------------------------------2-2--------------------------------|

Wijl wintars stilta hvis en wijl vorjaarns guldyn sunnaluiht

repeat melody

e|-5----3-5-3-0--------5---3-5-3-8--7---5----3-5-3-0-------5----3-5-3--5--3---5-----0-8-7-|
b|----------------------------------------------------------------------------------------|
g|----------------2-2----------------------------------2-2--------------------------------|

I wintars stilta hvis
I vorjaarns guldyn luiht
I naarjaars bluodin roud, naarjaars bluodin roud
3:48 switch fast between these chords

melody end melody


e|-5----3-5-3-0--------5---3-5-3-8--7---5----3-5-3-0-------5----3-5-3--5--3---5-----0-8-7-|
b|----------------------------------------------------------------------------------------|
g|----------------2-2----------------------------------2-2--------------------------------|

Wijl wintars stilta hvis en wijl vorjaarns guldyn sunnaluiht

melody end melody


e|-5----3-5-3-0--------5---3-5-3-8--7---5----3-5-3-0-------5----3-5-3--5--3---5-----0-8-7-|
b|----------------------------------------------------------------------------------------|
g|----------------2-2----------------------------------2-2--------------------------------|


[Outro]

Аккорды Falkenbach - Eweroun

Am
I wintars stilta hvis
F Am E Am
I vorjaarns guldyn luiht
Am C G F E Am
I naarjaars bluodin roud, naarjaars bluodin roud
Am
I wintars stilta hvis
F Am E Am
I vorjaarns guldyn luiht
Am C G F E Am
I naarjaars bluodin roud, naarjaars bluodin roud
Am F Am E
1:37 switch fast between these last 3 chords
F E F E F E F G

melody end melody

Am F E Am F E Dm

e|-5----3-5-3-0--------5---3-5-3-8--7---5----3-5-3-0-------5----3-5-3--5--3---5-----0-8-7-|
b|----------------------------------------------------------------------------------------|
g|----------------2-2----------------------------------2-2--------------------------------|
D|----------------------------------------------------------------------------------------|
A|----------------------------------------------------------------------------------------|
E|----------------------------------------------------------------------------------------|

Am C Am C G Am
Wijl wintars stilta hvis en wijl vorjaarns guldyn sunnaluiht
Am C G Dm
Den oude vandrar waagt, fuer eweroun en eweroun
Am C G Dm Am E
Den oude vandrar waagt wijl naarjaars roud, fuer eweroun, eweroun.

repeat melody

Am F G Am F G Dm F
e|-5----3-5-3-0--------5---3-5-3-8--7---5----3-5-3-0-------5----3-5-3--5--3---5-----0-8-7-|
b|----------------------------------------------------------------------------------------|
g|----------------2-2----------------------------------2-2--------------------------------|
D|----------------------------------------------------------------------------------------|
A|----------------------------------------------------------------------------------------|
E|----------------------------------------------------------------------------------------|

Am
I wintars stilta hvis
F Am E Am
I vorjaarns guldyn luiht
Am C G F E Am
I naarjaars bluodin roud, naarjaars bluodin roud
Am F Am E
3:48 switch fast between these chords
F E F E F E F G

melody end melody

Am F G Am F G Dm F

e|-5----3-5-3-0--------5---3-5-3-8--7---5----3-5-3-0-------5----3-5-3--5--3---5-----0-8-7-|
b|----------------------------------------------------------------------------------------|
g|----------------2-2----------------------------------2-2--------------------------------|
D|----------------------------------------------------------------------------------------|
A|----------------------------------------------------------------------------------------|
E|----------------------------------------------------------------------------------------|

Am C Am C G Am
Wijl wintars stilta hvis en wijl vorjaarns guldyn sunnaluiht
Am C G Dm
Den oude vandrar waagt, fuer eweroun en eweroun
Am C G Dm Am E
Den oude vandrar waagt wijl naarjaars roud, fuer eweroun, eweroun.

melody end melody

Am F G Am F G Dm F

e|-5----3-5-3-0--------5---3-5-3-8--7---5----3-5-3-0-------5----3-5-3--5--3---5-----0-8-7-|
b|----------------------------------------------------------------------------------------|
g|----------------2-2----------------------------------2-2--------------------------------|
D|----------------------------------------------------------------------------------------|
A|----------------------------------------------------------------------------------------|
E|----------------------------------------------------------------------------------------|


[Outro]

Am F Am E Am C G C E Am F Am E Am

Клип Falkenbach - Eweroun

Текст песни Eweroun

Тексты песен Falkenbach являются собственностью правообладателей. Контент «Eweroun» представлен на нашем ресурсе исключительно для ознакомления и личного пользования.
All lyrics are property and copyright of their owners. All lyrics provided for educational purposes and personal use only.

Рекомендуем
Комментарии (0)
Добавить
Кликните на изображение чтобы обновить код, если он неразборчив